rock
 
|tablatures   |lyrics   |discussion forums   |more tabs @ XGuitar.com

U2 tabs

God Part II bass tab

 U2 "God part II" - Bass tab
 ----------------------------------------

 The tab that was posted before has minor mistakes, so I decided to correct them and it 
 sounds more like in the album.

 G|--------------------------------------------------------------
 D|--------------------------------------------------------------
 A|------------------------------------------44-4-44-4-44-4444-2-
 E|-44-4-44-4-44-4-44-4-44-4-44-4-44-444-6-7---------------------

 G|---------------------------------------------------------
 D|---------------------------------------------------------
 A|---------------------66-66666-44-44444-------------------
 E|-44-4-44-4-44-4444-6-------------------44-4-44-4-44-4-44-

 Repeat that for the whole song and stop at E|-4- when Adam stops.
 There's only 2 or 3 things I changed but it sounds better this way.

 Tabbed by Roberto Cruz
 zurc@sprint.ca
  development and support by
dmitry ivanov