rock
 
|tablatures   |lyrics   |discussion forums   |more tabs @ XGuitar.com

U2 tabs

Heartland guitar tab

"Heartland"
  ---------
tabbed by: John S. Jacob, jsjacob@uclink.berkeley.edu


[Intro]
  Ebsus2      Csus2  Bbsus2     Ebsus2      Csus2  Bbsus2    Ebsus2
--6---8-6-----3------1----------6---8-6--------3---1---------6-------
--6-------6---3------1----------6-------6------3---1---------6-------
--8-----------5------3----------8-----------5--5---3---------8-------
--8-----------5-----------------8-----------5------3---------8-------
--6-----------3-----------------6----------------------------6-------
---------------------------------------------------------------------


[Riff 1]
  Dm                      Csus2     Dm                     Csus2
-----5--------------5--------3---------5--------------5-------3------
-----6--------------6--------3---------6--------------6-------3------
--7--------------7--------5---------7--------------7-------5---------
---------------------------------------------------------------------
---------------------------------------------------------------------
---------------------------------------------------------------------
       See the sun - rise over her    skin / Don't change    it


[Riff 1]
  Dm                      Csus2     Dm                   Csus2
-----5--------------5--------3---------5-------------5------3--------
-----6--------------6--------3---------6-------------6------3--------
--7--------------7--------5---------7-------------7------5-----------
---------------------------------------------------------------------
---------------------------------------------------------------------
---------------------------------------------------------------------
       See the sun - rise over her    skin / Dawn chan  -  ges...


[Riff 2]
  Bbsus2             Bbsus2 F          C
--------1------------------------------------3---------3-------------
-----1------------------1------1-------------------------------------
--3------------------3------2-------------5---------5----------------
---------------------------------3-----5---------5-------------------
---------------------------------------------------------------------
---------------------------------------------------------------------
  e   -   verything,          everything.               And the del -


[Riff 2]
  Bbsus2             Bbsus2 F              C
--------1----------------------------------------3---------3---------
-----1------------------1-------1------------------------------------
--3------------------3------2-----------------5---------5------------
---------------------------------------3---5---------5---------------
---------------------------------------------------------------------
---------------------------------------------------------------------
  ta   sun /              Burns bright and violent.



[Riff 1]
Mississippi and the cotton wool heat
[Riff 1]
Sixty-six a highway speaks
[Riff 2]
Of deserts dry, of cool green valleys
[Riff 2]
Gold and silver veins -- of shining cities


        Csus2 [(xxxx533) or (xxx78x)]
In this heartland
In this heart, land, soil
In this heartland
Heaven knows this is our land
Heartland
Heartland


[Ad lib]
Dm               Csus2    Dm   Csus2    
See the sun rise over her skin
Dm             Csus2     Dm     Csus2
She feels like water in my hand
Dm              Csus2                  Dm   Csus2
Freeway like a river cuts through this land
Into the side of
[Riff 2]
love, like a burning spear. And the poison
[Riff 2]
rain brings a flood of fear. Through the ghostranch
[Riff 2]
hills, Death Valley waters. In the towers of
[Riff 2]
steel belief goes on and on



[Outro]
        Csus2
In this heartland
In this heart, land, soil
In this heartland
Heaven knows this is our land
Heartland
Heaven knows this is our land
Heartland
Heaven knows this is our land
Heartland
Heaven's gate, here is our land
Heartland
  development and support by
dmitry ivanov