rock
 
|tablatures   |lyrics   |discussion forums   |more tabs @ XGuitar.com

U2 tabs

Hold Me Thrill Me Kiss Me Kill Me bass tab

U2 "HOLD ME THRILL ME KISS ME KILL ME" -BASS TAB
------------------------------------------------

Tune Down 1/2 step

Intro:
|---------------------------------------------------|
|---------------------------------------------------|
|--7---5---2-----------7---5---2--------------------|
|--------------3--3----------------1--1-------------|

Main riff:
|-----------------------------|-------------------------|
|*-2-2-0-2------0-2-2-2-2---*-|-------------------------|
|*------------3-----------3-*-|-----0-------------------|
|-----------------------------|-------------3-----------|

Chorus
|---------------------------------------------------|
|---------------------------------------------------|
|---2------0----------------------------------------|
|-----------------1------3--------------------------|



Tabbed by Mark Linwood


Hint suggesstions or comments to (Rlinwood@powerup.com.au)
  development and support by
dmitry ivanov