rock
 
|tablatures   |lyrics   |discussion forums   |more tabs @ XGuitar.com

U2 tabs

I Will Follow bass tab

U2 "I Will Follow" - BASS TAB
-----------------------------
RON FLUIT (THE NETHERLANDS) fluit@xs4all.nl

Tune down 1/2 step: Eb Ab Db Gb 


REMARKS:
THESE NOTES ARE WTITTEN AS QUARTERNOTES. BUT YOU HAVE TO PLAY THE EIGHTS.
IT COULD HAVE BEEN DISPLAYED SHORTER, BUT THIS MAKES IT CLEARER.
THE NOTES COULD BE PLACED IN AN OTHER WAY, E.G. OPEN STRINGS.
THE ADVANTAGE OF THIS POSITION IS THAT YOU CAN PLAY THE WHOLE SONG (ACCEPT FOR THE BRIDE)IN ONE POSITION ON THE NECK.
JUST PLAY THESE LINES FROM BEGIN UNTIL THE END.

HAVE FUN, RON


THE FIRST 8 BARS ARE GUITARTAB (NOT SHOWN) THEN.......

2*
|----------------------------------------------------------|
|---------------------------7-7----------------------------|
|-7-7-7-7----------7-7-7-7-------5-5-----------------------|
|---------8-8-8-8------------------------------------------|


2* (Verse 1)
|----------------------------------------------------------|
|----------------------------------------------------------|
|-7-7-7-7---0-0-0-0---7-7-7-7---0-0-0-0--------------------|
|----------------------------------------------------------|

2*
|----------------------------------------------------------|
|--------------------------------7-7-----------------------|
|-7-7-7-7---0-0-0-0---7-7-7-7---------5-5------------------|
|----------------------------------------------------------|


2* (Verse 2)
|----------------------------------------------------------|
|----------------------------------------------------------|
|-7-7-7-7---0-0-0-0---7-7-7-7---0-0-0-0--------------------|
|----------------------------------------------------------|


CHORUS
2*
|----------------------------------------------------------|
|----------------------------------------------------------|
|-7-7-7-7---0-0-0-0---7-7-7-7---0-0-0-0--------------------|
|----------------------------------------------------------|


2*
|----------------------------------------------------------|
|--------------------------------7-7-----------------------|
|-7-7-7-7---0-0-0-0---7-7-7-7---------5-5------------------|
|----------------------------------------------------------|


2* (Verse 3)
|----------------------------------------------------------|
|----------------------------------------------------------|
|-7-7-7-7---0-0-0-0---7-7-7-7---0-0-0-0--------------------|
|----------------------------------------------------------|


CHORUS
2*
|----------------------------------------------------------|
|----------------------------------------------------------|
|-7-7-7-7---0-0-0-0---7-7-7-7---0-0-0-0--------------------|
|----------------------------------------------------------|

2*
|----------------------------------------------------------|
|--------------------------------7-7-----------------------|
|-7-7-7-7---0-0-0-0---7-7-7-7---------5-5------------------|
|----------------------------------------------------------|


Bridge:

|-----------------------------------------------------------------------| 
|-----------------------------------------------------------------------| 
|-7---5-5---5-5------------5-5---5-5-----------5-5---5-5----------5-5---|
|---7-------------7-0---3------------3-0-----7------------7-0---3-------| 
    \________________  __________________/                            
                     \/ 
                  Repeat 5*  


2*
|----------------------------------------------------------|
|---------------------------7-7----------------------------|
|-7-7-7-7----------7-7-7-7-------5-5-----------------------|
|---------8-8-8-8------------------------------------------|


4* (CHORUS)
|----------------------------------------------------------|
|----------------------------------------------------------|
|-7-7-7-7---0-0-0-0---7-7-7-7---0-0-0-0--------------------|
|----------------------------------------------------------|

OUTRO
|---------------------------------------------------------------|
|---------------------------7-7---------------------------------|
|-7-7-7-7----------7-7-7-7-------5-5---7-7-7-7---------7-7-7----|
|---------8-8-8-8------------------------------8-8-8-8----------|

FINE
  development and support by
dmitry ivanov