rock
 
|tablatures   |lyrics   |discussion forums   |more tabs @ XGuitar.com

U2 tabs

Into The Heart guitar tab

==============
Into the Heart
==============

Transcribed by Richard Averill. 
If you have any corrections, complements or whatever,
e-mail me at: nigelolympus@tinet.ie

-----
Notes
-----

Tune all the strings on your guitar down 1/2 a step.
Use a very short delay effect and also lots of reverb.
The tempo is about 80 beats per minute. In all the song
is 118 bars long.

Following the end of my "An Cat Dubh" tab,
there are then 6 bars without any guitar, then:
   _______________________________________________________________
  / x2                                                            \
1|---------------------------------|-------------------------------|
2|---------------------------------|-------------------------------|
3|---------------------------------|-------------------------------|
4|-12------------------------------|-------------------------------|
5|-------------10------------------|-------------------------------|
6|---------------------------------|-------------------------------|
   1   +   2   +   3   +   4   +   1   +   2   +   3   +   4   +

1|---------------------------------|-------------------------------|
2|---------------------------------|-------------------------------|
3|---------------------------------|-------------------------------|
4|-12----------10----------9\------2-------------------/-----------|
5|---------------------------------|-------------------------------|
6|---------------------------------|-------------------------------|
   1   +   2   +   3   +   4   +   1   +   2   +   3   +   4   +
   _______________________________________________________________
  / x2                                                            \
1|---------------------------------|-------------------------------|
2|---------------------------------|-------------------------------|
3|---------------------------------|-------------------------------|
4|-12------------------------------|-------------------------------|
5|-------------10------------------|-------------------------------|
6|---------------------------------|-------------------------------|
   1   +   2   +   3   +   4   +   1   +   2   +   3   +   4   +

1|---------------------------------|-------------------------------|
2|---------------------------------|-------------------------------|
3|---------------------------------|-------------------------------|
4|-12----------10----------9\------2-------------------------------|
5|-10------------------------------|-------------------------------|
6|---------------------------------|-------------------------------|
   1   +   2   +   3   +   4   +   1   +   2   +   3   +   4   +

1|-x-------------------------------|-------------------------------|   \
2|-0-------------------------------|-------------------------------|    |
3|-0-------------------------------|-------------------------------|    |
4|-2-------------------------------|-------------------4-----------|    |
5|-3-------------------------------|---------------5---------------|    |
6|-3-------------------------------|-------------------------------|    |
   1   +   2   +   3   +   4   +   1   +   2   +   3   +   4   +        |
                                                                        |
x2
1|---------------------------------|-------------------------------|    |
2|---------------------------------|-------------------------------|    |
3|---------------------------------|-------------------------------|    |
4|-----5---------------------------|-------------------------------|    |
5|-5-------------------------------|-------------------------------|    |
6|---------------------------------|-------------------------------|    |
   1   +   2   +   3   +   4   +   1   +   2   +   3   +   4   +       /

1|---------------------------------|-------------------------------|   \
2|---------------------------------|-------------------------------|    |
3|---------------------------------|-------------------------------|    |
4|-12------------------------------|-------------------------------|    |
5|-------------10------------------|-------------------------------|    |
6|---------------------------------|-------------------------------|    |
   1   +   2   +   3   +   4   +   1   +   2   +   3   +   4   +        |
                                                                        |
x2
1|---------------------------------|-------------------------------|    |
2|---------------------------------|-------------------------------|    |
3|---------------------------------|-------------------------------|    |
4|-12----------10----------9\------2-------------------------------|    |
5|-10------------------------------|-------------------------------|    |
6|---------------------------------|-------------------------------|    |
   1   +   2   +   3   +   4   +   1   +   2   +   3   +   4   +       /

1|-x-------------------------------|-------------------------------|   \
2|-0-------------------------------|-------------------------------|    |
3|-0-------------------------------0-------------------------------|    |
4|-2-------------------------------|-----------2-------------------|    |
5|-3-------------------------------|-----------------------3-------|    |
6|-3-------------------------------|-------------------------------|    |
   1   +   2   +   3   +   4   +   1   +   2   +   3   +   4   +        |
                                                                        |
x2
1|---------------------------------|-------------------------------|    |
2|---------------------------------|-------------------------------|    |
3|---------0-----------------------|---------------0---------------|    |
4|-4---------------4---------------|-------------------------------|    |
5|-5-------------------------------|-------------------------------|    |
6|---------------------------------|-------------------------------|    |
   1   +   2   +   3   +   4   +   1   +   2   +   3   +   4   +        /

1|---------------------------------|-------------------------------|
2|---------------------------------|-------------------------------|
3|---------------------------------|-------------------------------|
4|---------------------------------|-------------------------------|
5|-7-------------------------------9---------------10--------------|
6|---------------------------------|-------------------------------|
   1   +   2   +   3   +   4   +   1   +   2   +   3   +   4   +

1|---------------------------------|-------------------------------|
2|---------------------------------|-------------------------------|
3|---------------------------------|-------------------------------|
4|---------------------------------|-------------------------------|
5|-9---------------7---------------|---------------5---------------|
6|---------------------------------|-------------------------------|
   1   +   2   +   3   +   4   +   1   +   2   +   3   +   4   +

1|---------------------------------|-------------------------------|
2|---------------------------------|-------------------------------|
3|---------------------------------|-------------------------------|
4|---------------------------------|-------------------------------|
5|-7-------------------------------9---------------10--------------|
6|---------------------------------|-------------------------------|
   1   +   2   +   3   +   4   +   1   +   2   +   3   +   4   +

1|---------------------------------|-------------------------------|
2|---------------------------------|-------------------------------|
3|-----------------0---------------|-------------------------------|
4|---------0---------------10------|-------------------------------|
5|-12------------------------------|-------------------------------|
6|---------------------------------|-------------------------------|
   1   +   2   +   3   +   4   +   1   +   2   +   3   +   4   +
   _______________________________________________________________
  / x2                                                            \
1|---------------------------------|--<12>---------15--12----------|
2|---------------------------------|------<12>---------------------|
3|---------------------------------|----------<12>-----------------|
4|-12------------------------------|-------------------------------|
5|---------10----------------------|-------------------------------|
6|---------------------------------|-------------------------------|
   1   +   2   +   3   +   4   +   1   +   2   +   3   +   4   +

1|---------------------------------|-------------------------------|
2|---------------------------------|-------------------------------|
3|---------------------------------|-------------------------------|
4|-12--------------12--------------10--------------8---------------|
5|-10--------------10--------------|-------------------------------|
6|---------------------------------|-------------------------------|
   1   +   2   +   3   +   4   +   1   +   2   +   3   +   4   +

1|-----------------------------0---|-------------------------------|
2|---------------------------------|-----------0-------------------|
3|---------------------------------|-------------------------------|
4|-10--------------7---------------|-------------------------------|
5|---------8-----------------------|-------------------------------|
6|---------------------------------|-------------------------------|
   1   +   2   +   3   +   4   +   1   +   2   +   3   +   4   +
                                           In  -   to  the     heart__
   _______________________________________________________________
  / x2                                                            \
1|---------------------------------|--<12>---------15--12----------|
2|---------------------------------|------<12>---------------------|
3|---------------------------------|----------<12>-----------------|
4|-12------------------------------|-------------------------------|
5|---------10----------------------|-------------------------------|
6|---------------------------------|-------------------------------|
   1   +   2   +   3   +   4   +   1   +   2   +   3   +   4   +
   _________________________,                          of  a   child__
   _________________________.          I       stay    a       while__

1|---------------------------------|-------------------------------|
2|---------------------------------|-------------------------------|
3|---------------------------------|-------------------------------|
4|-12--------------12--------------10--------------8---------------|
5|-10--------------10--------------|-------------------------------|
6|---------------------------------|-------------------------------|
   1   +   2   +   3   +   4   +   1   +   2   +   3   +   4   +
   _________________.                  Then    I       can     go

1|-----------------------------0---|-------------------------------|
2|---------------------------------|-------------------------------|
3|---------------------------------|-------------------------------|
4|-10--------------7---------------|-------------------------------|
5|---------8-----------------------|-------------------------------|
6|---------------------------------|-------------------------------|
   1   +   2   +   3   +   4   +   1   +   2   +   3   +   4   +
       back_____________.                  In  -   to  the heart____

1|-10------------------------------10----------------------10------|
2|---------8---------------8-------|-------8-----------8-------8---|
3|-----------------7---------------|-----------7-------------------|
4|---------------------------------|-------------------------------|
5|---------------------------------|-------------------------------|
6|---------------------------------|-------------------------------|
   1   +   2   +   3   +   4   +   1   +   2   +   3   +   4   +
   _________________________,                          of  a   child__

1|-10------------------------------10----------------------10------|
2|---------8---------------8-------|-------8-----------8-------8---|
3|-----------------7---------------|-----------7-------------------|
4|---------------------------------|-------------------------------|
5|---------------------------------|-------------------------------|
6|---------------------------------|-------------------------------|
   1   +   2   +   3   +   4   +   1   +   2   +   3   +   4   +
   _________________________.                  I       can     smile__

1|-13--13----------13--13----------13--13----------13--13----------|
2|---------11--------------11------|-------11--------------11------|
3|---------------------------------|-------------------------------|
4|---------------------------------|-------------------------------|
5|---------------------------------|-------------------------------|
6|---------------------------------|-------------------------------|
   1   +   2   +   3   +   4   +   1   +   2   +   3   +   4   +
   _________________________.                  I       can     go

1|-15----------15----------15------15----------15----------15------|
2|-----13----------13----------13--|---13----------13----------13--|
3|---------------------------------|-------------------------------|
4|---------------------------------|-------------------------------|
5|---------------------------------|-------------------------------|
6|---------------------------------|-------------------------------|
   1   +   2   +   3   +   4   +   1   +   2   +   3   +   4   +
       there________________.              In   -  to  the     heart__

1|-10------------------------------10----------------------10------|
2|---------8---------------8-------|-------8-----------8-------8---|
3|-----------------7---------------|-----------7-------------------|
4|---------------------------------|-------------------------------|
5|---------------------------------|-------------------------------|
6|---------------------------------|-------------------------------|
   1   +   2   +   3   +   4   +   1   +   2   +   3   +   4   +
   _________________________________,      in   -  to  the     heart__

1|-10------------------------------10----------------------10------|
2|---------8---------------8-------|-------8-----------8-------8---|
3|-----------------7---------------|-----------7-------------------|
4|---------------------------------|-------------------------------|
5|---------------------------------|-------------------------------|
6|---------------------------------|-------------------------------|
   1   +   2   +   3   +   4   +   1   +   2   +   3   +   4   +
   _________________   of  a   child.          I       can     go_____

1|-13--13----------13--13----------13--13----------13----------13--|
2|---------11--------------11------|-------11----------11----------|
3|---------------------------------|-------------------------------|
4|---------------------------------|-------------------------------|
5|---------------------------------|-------------------------------|
6|---------------------------------|-------------------------------|
   1   +   2   +   3   +   4   +   1   +   2   +   3   +   4   +
   ________    back_____________,              I       can     stay

1|-15----------15----------15------15------------------------------|
2|-----13----------13----------13--|-------------------------------|
3|---------------------------------|-------------------------------|
4|---------------------------------|-------------------------------|
5|---------------------------------|-------------------------------|
6|---------------------------------|-------------------------------|
   1   +   2   +   3   +   4   +   1   +   2   +   3   +   4   +
       a           while____________________.      To  the     heart__

1|---------------------------------|-------------------------------|
2|-----------------0---------------|-------------------------------|
3|---------0-----------------------|---------------0---------------|
4|---------------------------------|-------------------------------|
5|-3-------------------------------|-------------------------------|
6|---------------------------------|-------------------------------|
   1   +   2   +   3   +   4   +   1   +   2   +   3   +   4   +
   _________________________.

1|---------------------------------|-------------------------------|
2|-----------------0---------------|-------------------------------|
3|---------0-----------------------|-------------------------------|
4|---------------------------------|-------------------------------|
5|-3-------------------------------|---------------2---------------|
6|---------------------------------|-------------------------------|
   1   +   2   +   3   +   4   +   1   +   2   +   3   +   4   +

1|---------------------------------|-------------------------------|
2|---------------------------------|-------------------------------|
3|---------------------------------|-------------------------------|
4|---------------------0-----------|-------------------------------|
5|-8-----------------------8-------|--/10----------8/--------------|
6|---------------------------------|-------------------------------|
   1   +   2   +   3   +   4   +   1   +   2   +   3   +   4   +
   Ooh______________________.

1|---------------------------------|-------------------------------|
2|---------------------------------|-------------------------------|
3|-----------------0---------------|-------------------------------|
4|---------0---------------10------|-------------------------------|
5|-12------------------------------|-------------------------------|
6|---------------------------------|-------------------------------|
   1   +   2   +   3   +   4   +   1   +   2   +   3   +   4   +
                                           In   -  to  the     heart__
   _______________________________________________________________
  / x2                                                            \
1|---------------------------------|-------------------------------|
2|---------------------------------|-------------------------------|
3|---------------------------------|-------------------------------|
4|-12------------------------------|-------------------------------|
5|-------------10------------------|-------------------------------|
6|---------------------------------|-------------------------------|
   1   +   2   +   3   +   4   +   1   +   2   +   3   +   4   +
   _________________________.

1|---------------------------------|-------------------------------|
2|---------------------------------|-------------------------------|
3|---------------------------------|-------------------------------|
4|-12--------------12--------------10\-------------8---------------|
5|-10------------------------------|-------------------------------|
6|---------------------------------|-------------------------------|
   1   +   2   +   3   +   4   +   1   +   2   +   3   +   4   +

1|---------------------------------|-------------------------------|
2|---------------------------------|-------------------------------|
3|-----------------0---------------|-------------------------------|
4|---------0-----------------------|-------------------------------|
5|-12------------------------------|-------------------------------|
6|---------------------------------|-------------------------------|
   1   +   2   +   3   +   4   +   1   +   2   +   3   +   4   +

1|-x-------------------------------|-------------------------------|   \
2|-0-------------------------------|-------------------------------|    |
3|-0-------------------------------0-------------------------------|    |
4|-2-------------------------------|-----------2-------------------|    |
5|-3-------------------------------|-----------------------3-------|    |
6|-3-------------------------------|-------------------------------|    |
   1   +   2   +   3   +   4   +   1   +   2   +   3   +   4   +        |
                                                                        |
x2
1|---------------------------------|-------------------------------|    |
2|---------------------------------|-------------------------------|    |
3|-0-------0-----------------------|---------------0---------------|    |
4|-4---------------4---------------|-------------------------------|    |
5|-5-------------------------------|-------------------------------|    |
6|-5-------------------------------|-------------------------------|    |
   1   +   2   +   3   +   4   +   1   +   2   +   3   +   4   +        /

1|-x-------------------------------|-------------------------------|
2|-0-------------------------------0-------------------------------|
3|-0-------------------------------|-----------0-------------------|
4|-2-------------------------------|-----------------------2-------|
5|-3-------------------------------|-------------------------------|
6|-3-------------------------------|-------------------------------|
   1   +   2   +   3   +   4   +   1   +   2   +   3   +   4   +

  (Start slowing down.)
1|---------------------------------|-------------------------------|
2|---------------------------------|-------------------------------|
3|-0-------------------------------|-------------------------------|
4|-2-------------------------------|-----------------------0-------|
5|-3-------------------------------|-----------2-------------------|
6|-3-------------------------------3-------------------------------|
   1   +   2   +   3   +   4   +   1   +   2   +   3   +   4   +

1|---------------------------------|-------------------------------||
2|---------------------------------|-------------------------------||
3|-0-------------------------------|-------------------------------||
4|-0-------------------------------|-------------------------------||
5|-2-------------------------------|-------------------------------||
6|-3-------------------------------|-------------------------------||
   1   +   2   +   3   +   4   +   1   +   2   +   3   +   4   +





U2 "Into The Heart" 
-------------------
steve palmer am560@freenet.carleton.ca

Tune down 1/2 step: Eb Ab Db Gb Bb Eb


Bass plays eighth notes throughout intro

Intro (immediately after "An Cat Dubh"):
   D                         C
|--------------------------------------------------------|
|--------7-------------12----12----10--------------------|
|-----7------------12-----------12-----------------------|
|--7-----------12---------------------12-----------------|
|--------------------------------------------------------|
|--------------------------------------------------------|
   

   C
|--10------10------10-8-7------10------10------10-8-7----|
|-----8-------8-----8-----5-------8-------8-----8-----5--|
|--------------------------------------------------------|
|--------------------------------------------------------|
|--------------------------------------------------------|
|--------------------------------------------------------|

   C
|--7-----------------------------------------------------|
|--8--(7h8)----------------------------------------------|
|----------(7h9)-----------------------------------------|
|--------------------------------------------------------|
|--------------------------------------------------------|
|--------------------------------------------------------|

   C
|--10------10------10-8-7------10------10------10-8-7----|
|-----8-------8-----8-----5-------8-------8-----8-----5--|
|--------------------------------------------------------|
|--------------------------------------------------------|
|--------------------------------------------------------|
|--------------------------------------------------------|

   C        D          C        D
|--7----------2-2-----------------2-2--------------------|
|--8--8-5-1-3---3----8-5--8-5-1-3---3--------------------|
|--------------------------------------------------------|
|--------------------------------------------------------|
|--------------------------------------------------------|
|--------------------------------------------------------|

     C        B       Bb         A
|--------------------------------5---3--10-10------------|
|--8-5--5-7-8-7-5---3-5---5-7-8----3---------------------|
|--------------------------------------------------------|
|--------------------------------------------------------|
|--------------------------------------------------------|
|--------------------------------------------------------|



Beginning of actual "Into The Heart" track:
   C                      B
|--10----12------15-------10----12------15---------------|
|-----8----12------15-13-----8----12------15-------------|
|------------12---------------------12-------------------|
|--------------------------------------------------------|
|--------------------------------------------------------|
|--------------------------------------------------------|

   Bb         A 
|--10-10-8-6--5---3--10-10-------------------------------|
|---------------3----------------------------------------|
|--------------------------------------------------------|
|--------------------------------------------------------|
|--------------------------------------------------------|
|--------------------------------------------------------|

              C                      B
|-------------10----12------15-------10----12------15----|
|----------------8----12------15-13-----8----12------15--|
|------------------------12---------------------12-------|
|--------------------------------------------------------|
|--------------------------------------------------------|
|--------------------------------------------------------|
  "into the __heart,          of a __child,         i'll stay a..."

   Bb               A 
|--10-10-8-6--------5---3--10-10-------------------------|
|---------------------3----------------------------------|
|--------------------------------------------------------|
|--------------------------------------------------------|
|--------------------------------------------------------|
|--------------------------------------------------------|
"..while, but I can go back"


Louder part (drums enter):
   C                    B
|--10---10---10---10----10---10---10---10----------------|
|-----8----8----8----8-----8----8----8----8--------------|
|--------------------------------------------------------|
|--------------------------------------------------------|
|--------------------------------------------------------|
|--------------------------------------------------------|

   Bb                       A
|--13----13----13----13-----15----15----15----15---------|
|-----11----11----11----11-----13----13----13----13------|
|--------------------------------------------------------|
|--------------------------------------------------------|
|--------------------------------------------------------|
|--------------------------------------------------------|

Repeat C B Bb A sequence 4 times

Outro:
   C          B          Bb           A
|--10---------10---------10--10--8-6--5---3--10-10-------|
|-----8----------8--------8---8---------3----------------|
|--------------------------------------------------------|
|--------------------------------------------------------|
|--------------------------------------------------------|
|--------------------------------------------------------|

   C        D       C            D          C
|--7----------2-2---------------------------0------------|
|--8--8-5-1-3---3---8-5---8-5--1-3-----0-3--3------------|
|------------------------------------0-------------------|
|--------------------------------------------------------|
|--------------------------------------------------------|
|--------------------------------------------------------|
  development and support by
dmitry ivanov