rock
 
|tablatures   |lyrics   |discussion forums   |more tabs @ XGuitar.com

U2 tabs

Kite bass tab

U2 - Kite
Submitted By: hoobastank_182__
EMail: no_parking182@hotmail.com


Standard Tuning: E A D G

Riff:
G|--------------------------------------------------------------|
D|--------------------------------------------------------------|
A|---------------------------------------7------7---------------|
E|--0--0--0--0--5--5--5--7--0--0--0---5-7--0-5-7-7--------------|

G|--------------------------------------------------------------|
D|--------------------7-----------------------7-----------------|
A|--5--5--5--5--5--5-7-7----5--5--5--5--5--5-7-7----------------|
E|--------------------------------------------------------------|

G|--------------------------------------------------------------|
D|--------------------------------------------------------------|
A|--4--4--4--4--4--4--4--2--0--0--0--0--0--0--0--0--------------|
E|--------------------------------------------------------------|

G|--------------------------------------------------------------|
D|--------------------------------------------------------------|
A|--------------------------------------------------------------|
E|--0--0--0--0--0--0--0--0--5--5--5--5--5--5--5--7--------------|

G|--------------------------------------------------------------|		
D|--------------------------------------------------------------|	
A|--4--4--4--4--4--4--4--2--0--0--0--0--0--0--0--0--------------|
E|--------------------------------------------------------------|

Chorus:
G|--------------------------------------------------------------|
D|--------------------------------------------------------------|
A|--7--7--7--7--7--7--7--7--2--2--2--2--2--2--2--2/-------------|
E|--------------------------------------------------------------|

G|--------------------------------------------------------------|
D|--------------------------------------------------------------|
A|--12-12-12-12-12-12-12-12/12-12-12-12-12-12-12-12-------------|
E|--------------------------------------------------------------|

Solo:
G|--------------------------------------------------------------|
D|--------------------7-----------------------7-----------------|
A|--5--5--5--5--5--5-7-7----5--5--5--5--5--5-7-7----------------|
E|--------------------------------------------------------------|

G|--------------------------------------------------------------|
D|--------------------------------------------------------------|
A|--4--4--4--4--4--4--4--2--0--0--0--0--0--0--0--0--------------|
E|--------------------------------------------------------------|
  development and support by
dmitry ivanov