rock
 
|tablatures   |lyrics   |discussion forums   |more tabs @ XGuitar.com

U2 tabs

Love And Peace Or Else bass tab

Song: Love and Peace or Else
Artist: U2
Album: How To Dismantle An Atomic Bomb
Tabbed by: Jase Warner (trip_through_your_wires@hotmail.com)

Standard Tuning (E,A,D,G)

Intro (listen carefully for the bass, sounds similar to the synth):

G|-------------|-------------|-------------|-------------|
D|*-----------*|*------------|-------------|------------*|
A|*-----------*|*3p5-5--3--5-|-3p5-5--3--5-|-3p5-3--2--3*|
E|-------------|-------------|-------------|-------------|

G|-------------|-------------|-------------|-------------|
D|*------------|-------------|-------------|------------*|
A|*3p5-5--3--5-|-3p5-5--3--5-|-3p5-5--3--5-|-3p5-3--2--3*|
E|-------------|-------------|-------------|-------------|


G|-------------|-------------|-------------|-------------|
D|*------------|-------------|-------------|------------*|
A|*3p5-5--3--5-|-3p5-5--3--5-|-3p5-5--3--5-|-3p5-3--2--3*|
E|-------------|-------------|-------------|-------------|


G|-------------|-------------|-------------|-------------|
D|*------------|-------------|-------------|------------*|
A|*3p5-5--3--5-|-3p5-5--3--5-|-3p5-5--3--5-|-3p5-3--2--3*|
E|-------------|-------------|-------------|-------------|

First Verse:


G|-------------|----------------|-------------|----------------|
D|*------------|3-3~--------5-3-|-------------|3-3~--------5-3*|
A|*3p5-5--3--5-|----5---3-5-----|-3p5-5--3--5-|----5---3-5----*|
E|-------------|----------------|-------------|----------------|

G|-------------|----------------|-------------|----------------|
D|*------------|3-3~--------5-3-|-------------|3-3~--------5-3*|
A|*3p5-5--3--5-|----5---3-5-----|-3p5-5--3--5-|----5---3-5----*|
E|-------------|----------------|-------------|----------------|

G|-------------|----------------|-------------|----------------|
D|*------------|3-3~--------5-3-|-------------|3-3~--------5-3*|
A|*3p5-5--3--5-|----5---3-5-----|-3p5-5--3--5-|----5---3-5----*|
E|-------------|----------------|-------------|----------------|

G|-------------|----------------|-------------|----------------|
D|*------------|3-3~--------5-3-|-------------|3-3~--------5-3*|
A|*3p5-5--3--5-|----5---3-5-----|-3p5-5--3--5-|----5---3-5----*|
E|-------------|----------------|-------------|----------------|

Pre-Chorus:

G|-----------|-----------|-----------|-----------|-------------|----------------|
D|*--10---10-|---10---10-|---10---10-|---10---10*|*------------|3-3~--------5-3-|
A|*----------|-----------|-----------|----------*|*3p5-5--3--5-|----5---3-5-----|
E|\8----8----|-8----8----|-8----8----|-8----8----|-------------|----------------|

G|----14----14-|----14----14-|----14----14-|----14----14-|
D|*------------|-------------|-------------|------------*|
A|*12----12----|-12----12----|-12----12----|-12----12---*|
E|-------------|-------------|-------------|-------------|
  this may look strange but i'm almost 100% sure it's what's being played
G|-------------------------|----------------|----------------|----------------|
D|*-----------------------*|-17--16---------|-17--16---------|-17--16--------*|
A|*15--15--15\17---17-\-19*|---------17--15-|---------17--15-|---------15/---*|
E|-------------------------|----------------|----------------|----------------|

Chorus:

G|-------------|----------------|-------------|----------------|
D|*------------|3-3~------------|-------------|3-3~-----------*|
A|*5~--------5-|----5---3--2--3-|-5~--------5-|----5---3--2--3*|
E|-------------|----------------|-------------|----------------|

G|-------------|----------------|-------------|----------------|
D|*------------|3-3~------------|-------------|3-3~-----------*|
A|*5~--------5-|----5---3--2--3-|-5~--------5-|----5---3--2--3*|
E|-------------|----------------|-------------|----------------|

Second Verse:

G|-------------|----------------|-------------|----------------|
D|*------------|3-3~--------5-3-|-------------|3-3~--------5-3*|
A|*3p5-5--3--5-|----5---3-5-----|-3p5-5--3--5-|----5---3-5----*|
E|-------------|----------------|-------------|----------------|

G|-------------|----------------|-------------|----------------|
D|*------------|3-3~--------5-3-|-------------|3-3~--------5-3*|
A|*3p5-5--3--5-|----5---3-5-----|-3p5-5--3--5-|----5---3-5----*|
E|-------------|----------------|-------------|----------------|

Pre-Chorus:

G|-----------|-----------|-----------|-----------|-------------|----------------|
D|*--10---10-|---10---10-|---10---10-|---10---10*|*------------|3-3~--------5-3-|
A|*----------|-----------|-----------|----------*|*3p5-5--3--5-|----5---3-5-----|
E|\8----8----|-8----8----|-8----8----|-8----8----|-------------|----------------|

G|----14----14-|----14----14-|----14----14-|----14----14-|
D|*------------|-------------|-------------|------------*|
A|*12----12----|-12----12----|-12----12----|-12----12---*|
E|-------------|-------------|-------------|-------------|
  this may look strange but i'm almost 100% sure it's what's being played
G|-------------------------|----------------|----------------|----------------|
D|*-----------------------*|-17--16---------|-17--16---------|-17--16--------*|
A|*15--15--15\17---17-\-19*|---------17--15-|---------17--15-|---------15/---*|
E|-------------------------|----------------|----------------|----------------|

Chorus:

G|-------------|----------------|-------------|----------------|
D|*------------|3-3~------------|-------------|3-3~-----------*|
A|*5~--------5-|----5---3--2--3-|-5~--------5-|----5---3--2--3*|
E|-------------|----------------|-------------|----------------|

G|-------------|----------------|-------------|----------------|
D|*------------|3-3~------------|-------------|3-3~-----------*|
A|*5~--------5-|----5---3--2--3-|-5~--------5-|----5---3--2--3*|
E|-------------|----------------|-------------|----------------|

Interlude (no bass)

Guitar Solo:

G|-------------|----------------|-------------|----------------|
D|*------------|3-3~--------5-3-|-------------|3-3~--------5-3*|
A|*3p5-5--3--5-|----5---3-5-----|-3p5-5--3--5-|----5---3-5----*|
E|-------------|----------------|-------------|----------------|

G|-------------|----------------|-------------|----------------|
D|*------------|3-3~--------5-3-|-------------|3-3~--------5-3*|
A|*3p5-5--3--5-|----5---3-5-----|-3p5-5--3--5-|----5---3-5----*|
E|-------------|----------------|-------------|----------------|

G|-------------|----------------|-------------|----------------|
D|*------------|3-3~--------5-3-|-------------|3-3~--------5-3*|
A|*3p5-5--3--5-|----5---3-5-----|-3p5-5--3--5-|----5---3-5----*|
E|-------------|----------------|-------------|----------------|

Outro:

G|-------------|-------------|-------------|-------------|-------------|-------------|
D|*------------|-------------|-------------|-------------|-------------|-------------|
A|*5-5-5-5-5-5-|-5-5-5-5-5-5-|-7-7-7-7-7-7-|-7-7-7-7-7-7\|-8-8-8-8-8-8-|-8-8-8-8-8-8\|
E|-------------|-------------|-------------|-------------|-------------|-------------|

G|-------------------|-------------|-------|
D|*------------------|------------*|-------|
A|*10-10-10-10-10-10-|-8-8-8-7-7-7*|*5~----|
E|-------------------|-------------|-------|

Real good song to play along to, i'm not 100% sure on some parts but sounds
good enough to me when I play it.  Comments always welcome.
  development and support by
dmitry ivanov