rock
 
|tablatures   |lyrics   |discussion forums   |more tabs @ XGuitar.com

U2 tabs

Love Rescue Me guitar tab

From: Jonathan Lozoya 

This is one of my favorite songs, teach it to a friend... .
Love Rescue Me 
by U2
>From Rattle and Hum
Please give me credit if you post this elsewhere.thanks



E -------------------------------2------------------------------------
B -------2-----------2---------3---3---------2-----------2-----------2
G -----2---2-------2---2-----2-------2-----2---2-------2---2-------2--
D ---2-------2---2-------2-0-------------2-------2---2-------2---2----
A -0-----------0-----------------------0-----------0-----------0------
E --------------------------------------------------------------------

E -----------------------------------------------------------2-----
B -----------0-----------0-----------2-----------2---------3---3---
G -2-------1---1-------1---1-------2---2-------2---2-----2-------2-
D ---2---2-------2---2-------2---2-------2---2-------2-0-----------
A -----0-----------0-----------0-----------0-----------------------
E -----------------------------------------------------------------

E --------------------------------------------------------------
B --------2----------2-----------0-----------2-----------2------
G ------2---2------2---2-------1---1-------2---2-------2---2----
D ----2-------2---2------2---2-------2---2-------2---2-------2--
A --0-----------0----------0-----------0-----------0------------
E --------------------------------------------------------------

E -------------------------------2------------------------------------
B -------2-----------2---------3---3---------2-----------2-----------2
G -----2---2-------2---2-----2-------2-----2---2-------2---2-------2--
D ---2-------2---2-------2-0-------------2-------2---2-------2---2----
A -0-----------0-----------------------0-----------0-----------0------
E --------------------------------------------------------------------
   Love rescue me           come fourth and speak to me  raise me up 

E -----------------------------------------------------------2-----
B -----------0-----------0-----------2-----------2---------3---3---
G -2-------1---1-------1---1-------2---2-------2---2-----2-------2-
D ---2---2-------2---2-------2---2-------2---2-------2-0-----------
A -----0-----------0-----------0-----------0-----------------------
E -----------------------------------------------------------------
and don't let me fall                                            ..etc.




I didn't have much time to finish it but that's the main riff

Jonathan@selfdestruct.com






"Love Rescue Me"
  --------------
 chords by: Scott Yanoff, yanoff@csd4.csd.uwm.edu

 INTRO uses verse chords (see formations at end of document)
  
 A           A7
 Love rescue me 
      D			 A
 Come forth and speak to me 
	  A                   E
 Raise me up and don't let me fall 
    A	         A7
 No man is my enemy 
	D	       A
 My own hands imprison me 
 A    E      A
 Love rescue me 

 Many strangers have I met 
 On the road to my regret 
 Many lost who seek to find themselves in me 
 They ask me to reveal 
 The very thoughts they would conceal 
 Love rescue me 
  
	 D			A
 And the sun in the sky makes a shadow of you and I 
					E    A/E  E7
 Stretching out as the sun sinks in the sea 
     A              A7          D            A
 I'm here without a name in the palace of my shame 
           E      A
 Said love rescue me 
  
 In the cold mirror of a glass 
 I see my reflection pass 
 I see the dark shades of what I used to be 
 I see the purple of her eyes 
 The scarlet of my lies 
 Love rescue me 
  
 And the sun in the sky makes a shadow of you and I 
 Stretching out as the sun sinks in the sea 
 I'm hanging by my thumbs 
 I'm ready for whatever comes 
 Love rescue me 
  
 E			        A
 Yeah though I walk through the valley of shadow 
 E                A
 Yet I will fear no evil 
	A                  A7
 I have cursed thy rod and staff 
	 D              A
 They no longer comfort me 
      E      A
 Love rescue me 
      E      A
 Love rescue me 
  
 Sha la la sha la la 
 Sha la la sha la la 
  
 I've conquered my past 
 The future is here at last 
 I stand at the entrance 
 To a new world I can see 
 The ruins to the right of me 
 Will soon have lost sight of me 
 Love rescue me 

CHORD FORMATIONS:		
A7  x 0 2 2 2 3
E7  x x 0 1 0 0

All chords are arpeggiated (meaning pluck out each string)
For example:

E--------------------|------------------
B------2-------2-----|---3-------3------ <--- Most chords play just these
G----2---2---2---2---|-2---2---2---2---- <---  three strings during most of
D--2-------2-------2-|-------0-------0-- <---  the song.
A--------------------|------------------
E--------------------|------------------
  (A Chord)		(D Chord)
  development and support by
dmitry ivanov