rock
 
|tablatures   |lyrics   |discussion forums   |more tabs @ XGuitar.com

U2 tabs

Out Of Control bass tab

#---------------------------------PLEASE NOTE---------------------------------#
#This file is the author's own work and represents their interpretation of the#
#song. You may only use this file for private study, scholarship, or research.#
#-----------------------------------------------------------------------------#

Song: Out of Control
Artist: U2
Album: Boy
Tabbed by: Jase Warner (trip_through_your_wires@hotmail.com)

Standard Tuning (E,A,D,G) Down Half A Step

Intro:

G|-----------------|-----------------|-----------------|-----------------|
D|*----------------|-----------------|-----------------|----------------*|
A|*5-5-5-5-5-5-5-5-|-5-5-5-5-5-5-5-5-|-5-5-5-5-5-5-5-5-|-5-5-5-5-5-5-5-5*|
E|-----------------|-----------------|-----------------|-----------------|

G|-----------------|-----------------|-----------------|-----------------|
D|*----------------|-----------------|-----------------|----------------*|
A|*5-5-5-5-5-5-5-5-|-5-5-5-5-5-5-5-5-|-5-5-5-5-5-5-5-5-|-5-5-5-5-5-5-5-5*|
E|-----------------|-----------------|-----------------|-----------------|

G|-----------------|-----------------|-----------------|-----------------|
D|*----------------|-----------------|-----------------|----------------*|
A|*----------------|-----------------|-----------------|----------------*|
E|-5-5-5-5-5-5-5-5-|-5-5-5-5-5-5-5-5-|-5-5-5-5-5-5-5-5-|-5-5-5-5-5-5-5-5-|

(enter drums)

G|-----------------|-----------------|-----------------|-----------------|
D|*----------------|-----------------|-----------------|----------------*|
A|*5-5-5-5-5-5-5-5-|-5-5-5-5-5-5-5-5-|-5-5-5-5-5-5-5-5-|-5-5-5-5-5-5-5-5*|
E|-----------------|-----------------|-----------------|-----------------|

G|-----------------|-----------------|-----------------|-----------------|
D|*----------------|-----------------|-----------------|----------------*|
A|*----------------|-----------------|-----------------|----------------*|
E|-5-5-5p3-5-5-5p3-|-5-5-5p3-5-5-5p3-|-5-5-5p3-5-5-5p3-|-5-5-5p3-5-5-5p3-|

First Verse:

G|-----------------|-----------------|-----------------|-----------------|
D|*----------------|-----------------|-----------------|----------------*|
A|*5-5-5-5-5-5-5-5-|-5-5-5-5-5-5-5-5-|-5-5-5-5-5-5-5-5-|-5-5-5-5-5-5-5-5*|
E|-----------------|-----------------|-----------------|-----------------|
 let notes ring when playing part below
G|-----------------|-7---6---4---6---|-----------------|-7---6---4---6---|
D|*7-----7-----7---|-----------------|-7-----7-----7---|----------------*|
A|*--0-0---0-0---0-|---0---0---0---0-|---0-0---0-0---0-|---0---0---0---0*|
E|-----------------|-----------------|-----------------|-----------------|

G|-----------------|-----------------|-----------------|-----------------|
D|*----------------|-----------------|-----------------|----------------*|
A|*5-5-5-5-5-5-5-5-|-5-5-5-5-5-5-5-5-|-5-5-5-5-5-5-5-5-|-5-5-5-5-5-5-5-5*|
E|-----------------|-----------------|-----------------|-----------------|
 let notes ring when playing part below
G|-----------------|-7---6---4---6---|-----------------|-7---6---4---6---|
D|*7-----7-----7---|-----------------|-7-----7-----7---|----------------*|
A|*--0-0---0-0---0-|---0---0---0---0-|---0-0---0-0---0-|---0---0---0---0*|
E|-----------------|-----------------|-----------------|-----------------|

Chorus:

G|-----------------|-----------------|-----------------|-----------------|
D|*5---4---2-2-0-0-|-5---4---2-2-0-0-|-5---4---2-2-0-0-|-5---4---2-2-0-0*|
A|*----------------|-----------------|-----------------|----------------*|
E|-----------------|-----------------|-----------------|-----------------|

G|-----------------|-----------------|-----------------|-----------------|
D|*----------------|----------------*|-----------------|----------------*|
A|*----------------|----------------*|-----------------|----------------*|
E|-3~-----5-----3~-|-----------------|-5~-----7-----5~-|-----------------|

Second Verse:

G|-----------------|-----------------|-----------------|-----------------|
D|*----------------|-----------------|-----------------|----------------*|
A|*5-5-5-5-5-5-5-5-|-5-5-5-5-5-5-5-5-|-5-5-5-5-5-5-5-5-|-5-5-5-5-5-5-5-5*|
E|-----------------|-----------------|-----------------|-----------------|
 let notes ring when playing part below
G|-----------------|-7---6---4---6---|-----------------|-7---6---4---6---|
D|*7-----7-----7---|-----------------|-7-----7-----7---|----------------*|
A|*--0-0---0-0---0-|---0---0---0---0-|---0-0---0-0---0-|---0---0---0---0*|
E|-----------------|-----------------|-----------------|-----------------|

Chorus:

G|-----------------|-----------------|-----------------|-----------------|
D|*5---4---2-2-0-0-|-5---4---2-2-0-0-|-5---4---2-2-0-0-|-5---4---2-2-0-0*|
A|*----------------|-----------------|-----------------|----------------*|
E|-----------------|-----------------|-----------------|-----------------|

G|-----------------|-----------------|-----------------|-----------------|
D|*----------------|----------------*|-----------------|----------------*|
A|*----------------|----------------*|-----------------|----------------*|
E|-3~-----5-----3~-|-----------------|-5~-----7-----5~-|-----------------|

Break:

G|-----------------|-----------------|-----------------|-----------------|
D|*----------------|-----------------|-----------------|----------------*|
A|*5-5-5-5-5-5-5-5-|-5-5-5-5-5-5-5-5-|-5-5-5-5-5-5-5-5-|-5-5-5-5-5-5-5-5*|
E|-----------------|-----------------|-----------------|-----------------|

G|-----------------|-----------------|-----------------|-----------------|
D|*----------------|-----------------|-----------------|----------------*|
A|*----------------|-----------------|-----------------|----------------*|
E|-5-5-5p3-5-5-5p3-|-5-5-5p3-5-5-5p3-|-5-5-5p3-5-5-5p3-|-5-5-5p3-5-5-5p3-|

Guitar Solo:

G|-----------------|-----------------|-----------------|-----------------|
D|*----------------|-----------------|-----------------|----------------*|
A|*5-5-5-5-5-5-5-5-|-5-5-5-5-5-5-5-5-|-5-5-5-5-5-5-5-5-|-5-5-5-5-5-5-5-5*|
E|-----------------|-----------------|-----------------|-----------------|
 let notes ring when playing part below
G|-----------------|-7---6---4---6---|-----------------|-7---6---4---6---|
D|*7-----7-----7---|-----------------|-7-----7-----7---|----------------*|
A|*--0-0---0-0---0-|---0---0---0---0-|---0-0---0-0---0-|---0---0---0---0*|
E|-----------------|-----------------|-----------------|-----------------|

G|-----------------|-----------------|-----------------|-----------------|
D|*----------------|-----------------|-----------------|----------------*|
A|*5-5-5-5-5-5-5-5-|-5-5-5-5-5-5-5-5-|-5-5-5-5-5-5-5-5-|-5-5-5-5-5-5-5-5*|
E|-----------------|-----------------|-----------------|-----------------|
 let notes ring when playing part below
G|-----------------|-7---6---4---6---|-----------------|-7---6---4---6---|
D|*7-----7-----7---|-----------------|-7-----7-----7---|----------------*|
A|*--0-0---0-0---0-|---0---0---0---0-|---0-0---0-0---0-|---0---0---0---0*|
E|-----------------|-----------------|-----------------|-----------------|

Chorus:

G|-----------------|-----------------|-----------------|-----------------|
D|*5---4---2-2-0-0-|-5---4---2-2-0-0-|-5---4---2-2-0-0-|-5---4---2-2-0-0*|
A|*----------------|-----------------|-----------------|----------------*|
E|-----------------|-----------------|-----------------|-----------------|

G|-----------------|-----------------|-----------------|-----------------|
D|*----------------|----------------*|-----------------|----------------*|
A|*----------------|----------------*|-----------------|----------------*|
E|-3~-----5-----3~-|-----------------|-5~-----7-----5~-|-----------------|

Interlude:

G|-----------------|-----------------|-----------------|-----------------|
D|*----------------|-----------------|-----------------|-------------5-4*|
A|*----------------|-5---------------|-----------------|-5--------------*|
E|-3---------------|-----------------|-3---------------|-----------------|

G|-----------------|-----------------|-----------------|-----------------|
D|*----------------|-----------------|-----------------|-------------5-4*|
A|*----------------|-5---------------|-----------------|-5--------------*|
E|-3---------------|-----------------|-3---------------|-----------------|

G|-----------------|-----------------|-----------------|-----------------|
D|*----------------|-----------------|-----------------|----------------*|
A|*----------------|-5---------------|-----------------|-5--------------*|
E|-3---------------|-----------------|-3---------------|-----------------|

G|-----------------|-----------------|-----------------|-----------------|
D|*----------------|-----------------|-----------------|----------------*|
A|*----------------|-----------------|-5-5-5-5-5-5-5-5-|-5-5-5-5-5-5-5-5*|
E|-3-3-3-3-3-3-3-3-|-3-3-3-3-3-3-3-3-|-----------------|-----------------|

Third Verse:

G|-----------------|-----------------|-----------------|-----------------|
D|*----------------|-----------------|-----------------|----------------*|
A|*5-5-5-5-5-5-5-5-|-5-5-5-5-5-5-5-5-|-5-5-5-5-5-5-5-5-|-5-5-5-5-5-5-5-5*|
E|-----------------|-----------------|-----------------|-----------------|

G|-----------------|-----------------|-----------------|-----------------|
D|*----------------|-----------------|-----------------|----------------*|
A|*----------------|-----------------|-----------------|----------------*|
E|-5-5-5-5-5-5-5-5-|-5-5-5-5-5-5-5-5-|-5-5-5-5-5-5-5-5-|-5-5-5-5-5-5-5-5-|

G|-----------------|-----------------|-----------------|-----------------|
D|*----------------|-----------------|-----------------|----------------*|
A|*5-5-5-5-5-5-5-5-|-5-5-5-5-5-5-5-5-|-5-5-5-5-5-5-5-5-|-5-5-5-5-5-5-5-5*|
E|-----------------|-----------------|-----------------|-----------------|

G|-----------------|-----------------|-----------------|-----------------|
D|*----------------|-----------------|-----------------|----------------*|
A|*----------------|-----------------|-----------------|----------------*|
E|-5-5-5-5-5-5-5-5-|-5-5-5-5-5-5-5-5-|-5-5-5-5-5-5-5-5-|-5-5-5-5-5-5-5-5-|

Chorus:

G|-----------------|-----------------|-----------------|-----------------|
D|*5---4---2-2-0-0-|-5---4---2-2-0-0-|-5---4---2-2-0-0-|-5---4---2-2-0-0*|
A|*----------------|-----------------|-----------------|----------------*|
E|-----------------|-----------------|-----------------|-----------------|

G|-----------------|-----------------|-----------------|-----------------|
D|*----------------|----------------*|-----------------|----------------*|
A|*----------------|----------------*|-----------------|----------------*|
E|-3~-----5-----3~-|-----------------|-5~-----7-----5~-|-----------------|

Outro:
 bass cuts out temporarily
G|-----------------|-----------------|-----------------|-----------------|
D|*----------------|-----------------|-----------------|----------------*|
A|*----------------|-----------------|-----------------|----------------*|
E|-----------------|-----------------|-----------------|-----------------|
                                       a     a      a
G|-----------------|-----------------|-----------------|-----------------|
D|*----------------|-----------------|-----------------|----------------*|
A|*5-5-5-5-5-5-5-5-|-5-5-5-5-5-5-5-5-|-5-5-5-5-5-5--5~-|----------------*|
E|-----------------|-----------------|-----------------|-----------------|

Where I've put the letter A's just above, that's where you make use of
accents, as I think Adam Clayton does this in synch to the snare hits.
  development and support by
dmitry ivanov