rock
 
|tablatures   |lyrics   |discussion forums   |more tabs @ XGuitar.com

U2 tabs

Party Girl guitar chords

Party Girl

tune down 1/2 a step
(from UABRS show)
INTRO/VERSE: Acoustic
  Bm                            Em
e-2-2-x-x-2-2-x-x-x-2-2-2-2-2-x-0-0-0-0-0-x-x
b-3-3-x-x-3-3-x-x-x-3-3-3-3-3-x-0-0-0-0-0-x-x
g-4-4-x-x-4-4-x-x-x-4-4-4-4-4-x-0-0-0-0-0-x-x
d-4-4-x-x-4-4-x-x-x-4-4-4-4-4-x-2-2-2-2-2-x-x
a-2-2-x-x-2-2-x-x-x-2-2-2-2-2-x-2-2-2-2-2-x-x
e--------------------------------------------

  A
e-0-0-x-0-0
b-2-2-x-2-2
g-2-2-x-2-2
d-2-2-x-2-2
a-0-0-x-0-0
e----------

SOLO:( I add delay :o)
   (harmonics)
e-12-12----------12~-14-12-10-9h10-7-9-10/12-10
b------12-12-12--------------------------------
g----------------------------------------------
d----------------------------------------------
a----------------------------------------------
e----------------------------------------------

e-9-7-9--10h12-10-9-7-9-7-5-7---12-12-12-12-12~~
b----------------------------------------------
g----------------------------------------------
d----------------------------------------------
a----------------------------------------------
e----------------------------------------------

e-0-2-3-2-0---0-------
b-----------3---2----- <--this three times
g-----------------2--4    i believe
d---------------------
a---------------------
e---------------------

then back into the verse starting with A i believe

* also then edge starts to do this sometimes
when he plays the A now

e-0-0-0-0-0
b-2-0-2-0-2
g-2-2-2-2-2
d-2-2-2-2-2
a-0-0-0-0-0
e----------   

u can actually se him do this once and u can hear it 
also if u listen closely. ok fellas take care.
                               JOHN

---------------------------------------------

Trash, Trampoline and the Party Girl.


Main riff :

  Cm                      Em          A
|-0-0-0-0-0---0-0-0-0-0---0-0-0-0-0---0-0--0-0-
|-3-3-3-3-3---3-3-3-3-3---0-0-0-0-0---2-2--2-2-
|-4-4-4-4-4---4-4-4-4-4---0-0-0-0-0---2-2--2-2-
|-4-4-4-4-4---4-4-4-4-4---2-2-2-2-2---2-2--2-2-
|---------------------------------------------------
|---------------------------------------------------


Cm                                Em
I know a girl, a girl called Party
A
Party girl
Cm                                       Em
I know she wants more than a party
A
Party girl
Cm
And she won't tell me her name

I know a boy, a boy called Trash
Trash Can
I know he does all that he can
Wham Bam
And he won't tell me his name

I have a heart, a heart that's beating inside
When I was three I thought the world revolved around me
I was wrong
And so I sing along
And if you dance, then dance with me

I know a girl, a girl called Party
Party girl
I know she wants more than a party
Party girl
I know a boy, a boy called Trampoline
You know what I mean

I think you know what he wants
I think he knows what he wants
I think he knows what he wants

P.S. I didn`t have enough space to the solo, but maybe I`ll send it to the 
archive.
I also noticed that not anyone had tabbed The three Sunrises and Endless 
deep, so maby I`ll try to tab it if anyone is interested.

thank you
Trond Mannsverk
----------------------------------------
Hey guys,

I noticed the solo for "Party Girl" was a little off.  I have the
Joushua Tree Tour version of that song so I thought I'd fix the solo...

Tune down 1/2 step:


e---12---14---12---------------------------------12-------------------B
-----------------15---14---15----12---14---15--------15---14---12----G-
--------------------------------------------------------------------

e---12----------------------------------12-12-12-12-12-12b---12-------
B--------15-14-12---14---12--------12---------------------------------G
-----------------------------14--------------------------------------

The next part is Bono doing that "wa ba bi do" stuff:

e---------------------------------------------------------------------
B----7-8-7-------------------------7-8-7------------------------------
G-9----------9--7--9--6--7------9---------9--7--9--6------------------D
---------------------------9-------------------------7--9------------

e---------------------------------------------------------------------
B----7-8-7------------------------------------------------------------
G-9----------9--7--9--6--7--------------------------------------------D
---------------------------9-----------------------------------------

And then he just goes back to strumming, enjoy.

Brian "Bonovox" Thalman (bonovox@networld.com) 
---------------------------------------------------------------------






Party Girl By U2
----------------
Tabbed by: Tom Murtaugh (sia@fast.net)

        I was on the archive and I saw this songs transcribtion wasn't that great, 
so I thought I would give a try.
        First of all the chords are wrong the Bm should be a Bmsus4 and the E major 
should be an Em.  These are the correct chords

   Bmsus4   Em     A
1----0------0------0------
2----3------0------2------
3----4------0------2------
4----4------2------2------
5----0------2------0------
6-----------0-------------

        Second of all these are the chords played through out the whole song there is no
break where there is just the Bm and Em.
        Third of all the solo is a little off, I think this is right or it's real close.  
I'm only gonna tab the first three strings for simplicity.

1----12---14-12-10-9-10-7-9-10-12-10-9-7----
2-------------------------------------------
3-------------------------------------------

        Now this next part is where Edge messed up, I think the Eb was suppost to be a D.

1----9-11-9--7-9-7--5-7---12-12-12-12-12bend----
2-----------------------------------------------
3-----------------------------------------------

        This last part is where as called in POP Bono does some "scat singing", I don't 
know but it might be an octave higher.

1--------------------------------------------------------------------
2----5-5-5-7-5-5-3-2-3-0--5-5-5-7-5-5-3-2---0--5-5-5-7-5-5-3-2-3-0---
3-----------------------------------------2--------------------------

        The rest of the song I think is right, so hope you enjoy. Keep those tabs coming
  development and support by
dmitry ivanov