rock
 
|tablatures   |lyrics   |discussion forums   |more tabs @ XGuitar.com

U2 tabs

Pride (In The Name Of Love) bass tab

Pride
bass tab


|--------------------------------|------|-----|-----|
|--------------------------------|-o-/--|-o-/-|-o-/-|
|--------------------------------|--/-o-|--/-o|--/-o|
|-5-5-5-5-5-5-5-5-5-5-5-5-5-5-5-5|------|-----|-----|


|--------------------------|--------------------------------|
|--------------------------|--------------------------------|
|--------------------------|--------------------------------|
|-7--7-7-7--5--7-7-5--7--7-|-0--0-0-0---0-0---0-0-x-0-0-0-0-|

|--------------------------|---------------------------|
|--------------------------|---------------------------|
|--------------------------|---------------------------|
|-5--5--5--5--5--5--5--5---|-2--2--2--2-2-2--2-2-2-7sl-|

|--------------------------|--------------------------------|
|--------------------------|--------------------------------|
|--------------------------|--------------------------------|
|-7--7-7-7--7--7-7-7--7--7-|-0--0-0-0---0-0---0-0-0-0-0-0-0-|

|--------------------------|----------------------------|
|--------------------------|----------------------------|
|--------------------------|----------------------------|
|-5--5--5--4-4-5--4-5-5--5-|-2--2--2--2-2-2--2-2-2-2sl--|

|--------------------------|-----------------------------|
|--------------------------|-----------------------------|
|--------------------------|-----------------------------|
|-7--7-7-7--7--7-7-7--7--7-|-0--0--0--0-0-0--0-0-0-0-0-0-|
one man come, in the name of love ......

|--------------------------|---------------------------|
|--------------------------|---------------------------|
|--------------------------|---------------------------|
|-5--5--5--5--5--5--5--5---|-2--2--2--2-2-2--2-2-2-7sl-|
one man come and go

|--------------------------|-----------------------------|
|--------------------------|-----------------------------|
|--------------------------|-----------------------------|
|-7--7-7-7--7--7-7-7--7--7-|-0--0--0--0-0-0--0-0-0-0-0-0-|
one man come he to justify

|--------------------------|-------------------------------|
|--------------------------|-4--4--4--4-4-4--4-4-4-4-4-4-4-|
|--------------------------|-------------------------------|
|-5--5--5--5--5--5--5--5---|-------------------------------|
one man to overthrow                             In the name...
 
|-------------------------|--------------------------------|
|-------------------------|--------------------------------|
|-------------------------|--------------------------------|
|-7--7--7--5--7--5-6-7--7-|--0--0--0--0-0-0--0-0-0-0-0-0---|
                  of love

|--------------------------|---------------------------|
|--------------------------|---------------------------|
|--------------------------|---------------------------|
|-5--5--5--5--5--5--5--5---|-2--2--2--2-2-2--2-2-2-7sl-|

|--------------------------|--------------------------------|
|--------------------------|--------------------------------|
|--------------------------|--------------------------------|
|-7--7-7-7--7--7-7-7--7--7-|-0--0-0-0---0-0---0-0-0-0-0-0-0-|

|--------------------------|---------------------------|
|--------------------------|---------------------------|
|--------------------------|---------------------------|
|-5--5--5--5--5--5--5--5---|-2--2--2--2-2-2--2-2-2-7sl-|

|--------------------------|-----------------------------|
|--------------------------|-----------------------------|
|--------------------------|-----------------------------|
|-7--7-7-7--7--7-7-7--7--7-|-0--0--0--0-0-0--0-0-0-0-0-0-|
one man caught, on a barbed wire fence .....

|--------------------------|--------------------------|
|-7--7--7--7-7-7--7-7-7--7-|-4--4--4--4--4--4-4-4--4--|
|--------------------------|--------------------------|
|--------------------------|--------------------------|
one man, he resist

|--------------------------|-----------------------------|
|--------------------------|-----------------------------|
|--------------------------|-----------------------------|
|-7--7-7-7--7--7-7-7--7--7-|-0--0--0--0-0-0--0-0-0-0-0-0-|
one man washed on an empty beach

|--------------------------|----------------------------|
|-7--7--7--7-7-7--7-7-7--7-|-4--4--4--4--4--4-4-4---4-4-|
|--------------------------|----------------------2-----|
|--------------------------|----------------------------|
one man betrayed with a kiss                In the name..


|--------------------------|--------------------9----|
|--------------------------|-------------------------|
|-2--2--2--2-2-2--2--2--2--|-7--7--7--7--7--7-7---7--|
|--------------------------|-------------------------|
                     of love

|-------------------------|-------------------------|
|-------7-----------7-----|--------------------4--4-|
|-------------------------|-------------------------|
|-5--5----5--5--5-5----5--|-2--2--2--2--2--2-2------|


|-------4-------------4-4-4|-------9--------9-9-9--9-|
|--------------------------|-------------------------|
|-2--2-----2--2-2-2-2------|-7--7-----7--7-----------|
|--------------------------|-------------------------|

|------------------------|--------------------------|
|-------7------7-7-7-----|-------4------------4--4--|
|------------------------|--------------------------|
|-5--5----5--5--------5--|-2--2-----2--2--2-2-------|

solo
|--------------------------|---------------------------------|
|--------------------------|---------------------------------|
|--------------------------|-5--5--5--3-4-5-5-4-4-5-5-5-5-5--|
|-7--7--7--5-6-7--5-7-7--7-|---------------------------------|

|--------------------------|----------------------------|
|--------------------------|----------------------------|
|-------7--5-6-7--5-6-7--7-|-------7--5-6-7-7-5-6-7-----|
|-0--0---------------------|-0--0--------------------5--|

|--------------------------|--------------------------------|
|--------------------------|--------------------------------|
|--------------------------|-5--5--5--3-4-5-5-4-4-5-5-5-5-5-|
|-7--7--7--5-6-7--5-7-7--7-|--------------------------------|

|--------------------------|----------------------------|
|--------------------------|----------------------------|
|-------7--5-6-7--5-6-7--7-|-------7--5-6-7-7-5-6-7-----|
|-0--0---------------------|-0--0--------------------5--|

|--------------------------|-----------------------------|
|--------------------------|-----------------------------|
|--------------------------|-------x-7-7-7--------2------|
|-7--7--7--5-6-7--5-7-7--7-|-0--0----------0-0--0-0--0-0-|

|--------------------------|---------------------------|
|--------------------------|---------------------------|
|--------------------------|---------------------------|
|-5--5--5--5--5--5--5--5---|-2--2--2--2-2-2--2-2-2-7sl-|

|--------------------------|--------------------------------|
|--------------------------|--------------------------------|
|--------------------------|--------------------------------|
|-7--7-7-7--7--7-7-7--7--7-|-0--0-0-0---0-0---0-0-0-0-0-0-0-|

|--------------------------|--------------------------|
|--------------------------|--------4--4--------4--4--|
|--------------------------|--------------------------|
|-5--5--5--5--5--5--5--5---|-2--2-2-------2--2--------|
                                                hmmm

|------4--4----------4--4--|---------------------------------|
|--------------------------|---------------------------------|
|-2--2-------2--2-2--------|---------------------------------|
|--------------------------|-0--0-0-0---0-0---0-0-0-0-0-0-0--|
hmm                 hmmm

|--------------------------|-----------------------------|
|----7--7--7---------------|-4--4--4--4--4--4-4-4--4--4--|
|--------------------------|-----------------------------|
|-5-----------5--5-5-5--5--|-----------------------------|

|------4--4----------4--4--|---------------------------------|
|--------------------------|---------------------------------|
|-2--2-------2--2-2--------|---------------------------------|
|--------------------------|-0--0-0-0---0-0---0-0-0-0-0-0-0--|
early morning,    april   four .....

|--------------------------|------------------------------|
|-------7--7--7------7--7--|-4--4--4--x-4--4-4--4---4--4--|
|--------------------------|------------------------------|
|-5--5------5---x-5--------|------------------------------|
shot rings out, in the memphis sky

|--------------------------|-------------------------------|
|-------9------------------|-------------------------------|
|--------------------------|-------------------------------|
|-7--7-----5--7-7--5-6-7-7-|-0--0--0--0-0-0-0---0--0--0--0-|
free at last,      they took your life .....

|--------------------------|---------------------------------|
|-------7--7--7------7--7--|-4-4-4-4-4-4-4-4-4-4-------------|
|--------------------------|---------------------5-6-7-7-----|
|-5--5------5---x-5--------|-----------------------------5-6-|
                                                  in the name...

|--------------------------|--------------------------------|
|--------------------------|--------------------------------|
|--------------------------|--------------------------------|
|-7--7--7--x-5-7--x-5-7--7-|-0--0--0--0-0-0-0---0--0--0--0--|
                     of love .....

|--------------------------|---------------------------------|
|--------------------------|---------------------------------|
|--------------------------|-9--9-9-9--9-9-9--9-9--9--9-9-sl-|
|-5-5-5--5-5-5-5----5-5--5-|---------------------------------|

|--------------------------|------------------------------|
|--------------------------|------------------------------|
|--------------------------|------------------------------|
|-7--7--7--5-6-7--5-7-7--7-|-0--0---0-0-0-0-0-0--0-0--0-0-|

|--------------------------|---------------------------|
|--------------------------|-------4--------------4--4-|
|--------------------------|---------------------------|
|-5-5-5--5-5-5-5----5-5--5-|-2--2-----2-2-2--2-2-------|


|---------------------------|---------------------------|
|---------------------------|-------9------------9--9-9-|
|-2--2-2-2--2-2-2--2-2-2--2-|-7--7-----7--7--7-7--------|
|---------------------------|---------------------------|

|-------------------------|----------------------------|
|--------7-------7--7-----|----------------------------|
|-------------------------|-9--9--9--9--9--x-9-9--9-9--|
|-5--5-5---5--5--------5--|----------------------------|

|--------------------------|------------------------------|
|--------------------------|------------------------------|
|--------------------------|------------------------------|
|-7--7--7--7-7-7--7-7-7--7-|-0--0---0-0-0-0-0-0--0-0--0-0-|

|-------------------------|----------------------------|
|--------7-------7--7-----|----------------------------|
|-------------------------|-9--9--9--9--9--x-9-9--9-9--|
|-5--5-5---5--5--------5--|----------------------------|

repeat last four measures till end
|---------------------------|----9-9-9---------9-9-9---|
|----9-9-9------------------|--------------------------|
|---------------------------|-7---------7-7-7--------7-|
|-7---------7-7-7--7-7-7--7-|--------------------------|

|---------------------------|--------------------------|
|-------7--7-------------7--|--------4------------4----|
|---------------------------|--------------------------|
|-5--5--------5--5-5-5------|-2--2-2----2--2--2-2----2-|
  development and support by
dmitry ivanov