rock
 
|tablatures   |lyrics   |discussion forums   |more tabs @ XGuitar.com

U2 tabs

Pride (In The Name Of Love) guitar tab

Pride  (In The Name of Love)
  1984
  Made by: Dale Podolsky (podolsky@shaw.wave.ca) 

  Moderate Rock=110

  With echo device


                                                         

  E||--------------------------------------------------|
  B||--12-12-12-12-12-12-12-12-12-12-12-12-12-12-12-12-|
  G||--11-11-11-11-11-9--9--9--11-9--9--9--11-9--9--11-|
  D||--------------------------------------------------|
  A||--------------------------------------------------|
  E||--------------------------------------------------|



  --------------------------------------------------|
  --12-12-12-12-12-12-12-12-12-12-12-12-12-12-12-12-|
  --11-11-11-11-11-9--9--9--11-9--9--9--11-9--9--11-|
  --------------------------------------------------|
  --------------------------------------------------|
  --------------------------------------------------|


                                              
  -------------------------------------------|
  --10-10-10-10-10-9-9-9-10-9-9-10-10-9-9-10-|
  --9--9--9--9--9--9-9-9-9--9-9-9--9--9-9-9--|
  -------------------------------------------|
  -------------------------------------------|
  -------------------------------------------|


                                                          sustain notes                   
  --------------------------------------------------|--------0--0-----------|
  --10-10-10-10-10-9--9--9--10-9--9--10-10-9--9--10-|-----------------------|
  --11-11-11-11-11-11-11-11-11-11-11-11-11-11-11-11-|-----------------------|
  --------------------------------------------------|--------------8--------|
  --------------------------------------------------|-----9-----------------|
  --------------------------------------------------|--7--------------------|


                                                                              
  -----------0-----------|-----------0-------------|-----------0--------0----|
  -----------0--0--------|--------------0----------|--------------0----------|
  --------6--------------|-----------------8-------|-----------------6-------|
  -----------------------|--------9-----------9----|--------7----------------|
  -----7-----------------|-----9-------------------|-----7-------------------|
  --5--------------------|--7----------------------|--5----------------------|


                                                 
  --11-12-14-11-12-14-11-12-14-11-12-14-x-x-x-x-|
  --------------------------------------x-x-x-x-|
  ----------------------------------------------|
  ----------------------------------------------|
  ----------------------------------------------|
  ----------------------------------------------|


                                                                            
  --11-12-14-11-12-14-11-12-14-11-12-14-x-x-x-x-|-----2-----2----2----2----|
  --------------------------------------x-x-x-x-|--0------0---0----0-------|
  ----------------------------------------------|--------------------------|
  ----------------------------------------------|--------------------------|
  ----------------------------------------------|--------------------------|
  ----------------------------------------------|--------------------------|


                                                                                  
  --2-----2---0-----0------0----|----------------------|-------------------0-----|
  ----0-0---0----0----0-0----0--|-------2---------2----|-----2-------2--------0--|
  ------------------------------|--4---------4---------|--4-------4-----4--------|
  ------------------------------|----------------------|-------------------------|
  ------------------------------|----------------------|-------------------------|
  ------------------------------|----------------------|-------------------------|


                                         
  ------------14-14--14-----14-14----14-|
  --2-----12------------12--------12----|
  -----4--------------------------------|
  --------------------------------------|
  --------------------------------------|
  --------------------------------------|


                                                                                
  ------14-----14-----14-14----14-------14----|-----14---------9---9-----9--9--|
  --12------12----12--------12----12-12----12-|--12----12--12--------12--------|
  --------------------------------------------|--------------------------------|
  --------------------------------------------|--------------------------------|
  --------------------------------------------|--------------------------------|
  --------------------------------------------|--------------------------------|


                                 
  ------9---9-----9--9-----9--9-9--------9|
  --12--------12-------12-----------12----|
  ----------------------------------------|
  ----------------------------------------|
  ----------------------------------------|
  ----------------------------------------|


                                                           
  --------0-------------------0--------------||
  ----7--------------------------0-----------||
  ------8---8----8------------------6--------||
  ------------9------------7-----------------||
  -------------------------------------------||
  -7--------------------5--------------------||


Transcription to "Pride" by U2 from "Rattle and Hum" 
 
tabbed by: Martijn Van Weijle

Use delay (0.40 s), some reverb, and compressor. 
Tune down 1/2 step to Eb. 
 
Intro   
    NH   NH  NH   NH   NH  NH 
E---12------------12------------ 
B---12------------12------------- 
G------------7-------------7----- 
D------------7-------------7----- 
A--------7-------------7--------- 
E-------------------------------- 
 
Part one (main riff)   
 
   v   ^   v   ^   v   ^   v   ^   v   ^   v   ^   v   ^   v   ^ 
E-----------------------------------------------------------------|-- 
B--12--12--12--12--12--12--12--12--12--12--12--12--12--12--X---X--|-- 
G--11--11--11--11--11--11--9---9---11--11--9---9---11--11--X---X--|-- 
D--9---9---9---9---9---9---9---9---9---9---9---9---9---9---X---X--|-- 
A-----------------------------------------------------------------|-- 
E-----------------------------------------------------------------|-- 
 
repeat 1 x 
  
   v   ^   v   ^   v   ^   v   ^   v   ^   v   ^   v   ^   v   ^ 
E-----------------------------------------------------------------|-- 
B--10--10--10--10--10--10--9---9--10--10---9---9--10--10---X---X--|-- 
G--9---9---9---9---9---9---9---9---9---9---9---9---9---9---X---X--|-- 
D--9---9---9---9---9---9---9---9---9---9---9---9---9---9---X---X--|-- 
A-----------------------------------------------------------------|-- 
E-----------------------------------------------------------------|-- 
 
   v   ^   v   ^   v   ^   v   ^   v   ^   v   ^   v   ^   v   ^ 
E-----------------------------------------------------------------|-- 
B--10--10--10--10--10--10--9---9--10--10---9---9---10--10--X---X--|-- 
G--11--11--11--11--11--11--11--11--11--11--11--11--11--11--X---X--|-- 
D--9---9---9---9---9---9---9---9---9---9---9---9---9---9---X---X--|-- 
A-----------------------------------------------------------------|-- 
E-----------------------------------------------------------------|-- 
 
Part two   
 
Let all the notes ring 
E--------0---------|-------0---------| 
B------------------|-----------0-----| 
G------8-----8-----|-----8-------8---| 
D----9---------9---|---7-------------| 
A------------------|-----------------| 
E--7---------------|-5---------------| 
 
Guitar solo   
 
     H  H     H  H     H  H  P       
E--11^12^14-11^12^14-11^12^14^11----------- 
B--------------------------------12-12-12-- 
G------------------------------------------ 
D------------------------------------------ 
A------------------------------------------ 
E------------------------------------------ 
	repeat 8x 
 
****************************************************************** 
 
Pride (In the name of love)                     [Capo on 1st fret] 
 
by:  Sergio Lucero, slucero@cipres.cec.uchile.cl

Intro chords  A A G Em 
 
 A                   D 
One man come in the name of love, 
 G               Em 
One man come and go. 
 A                   D 
One come here to justify, 
 G               Em 
One man to overthrow, 
 A                   D 
In the name of love, 
 G               Em 
What more in the name of love. 
 
One man crawled on a barbed wire fence, 
One man he resist. 
One man washed on an empty beach. 
One man betrayed with a kiss. 
In the name of love, 
What more in the name of love. 
 
Early morning, April 4. 
A shot rings out in the Memphis sky. 
Free at last, they took your life, 
But they could not take your pride. 
In the name of love, 
What more in the name of love. 
 
EXACT CHORDS                  CHORDS WITH CAPO ON 7th FRET 
A  x  x  7  9 10  7             D2  x x 0 2 3 0 
G  x 10  9  7  8  7              C  x 3 2 0 1 0 
Em x  7  9  9  8  7             Am  x 0 2 2 1 0
  development and support by
dmitry ivanov