rock
 
|tablatures   |lyrics   |discussion forums   |more tabs @ XGuitar.com

U2 tabs

Satellite Of Love guitar tab

Satellite Of Love 
by U2
Tabbed by Jonathan Farmer
Mister-MacPhisto@juno.com

This is the FULL TAB!  I hope you appreciate it.

Tuned down a half step (e.g. Eb, Bb, Gb, Db, Ab, Eb)

The order of this song is as follows
Verse 1 -> Chorus -> Verse 2 -> Chorus -> Bridge -> Verse 3 -> Chorus -> Outro

Verse
   G                               A7                              C
E|-------------3-----------------|-------------0-----------------|-------------3-----------------|
B|---------0-----------0---------|---------2-----------2---------|---------1-----------1---------|
G|-----0-------------------0-----|-----0-------------------0-----|-----0-------------------0-----|
D|-------------------------------|-------------------------------|-------------------------------|
A|-------------------------------|-0-----------------------------|-3-----------------------------|
E|-3-----------------------------|-------------------------------|-------------------------------|
   1   +   2   +   3   +   4   +   1   +   2   +   3   +   4   +   1   +   2   +   3   +   4   +
1.             Satellite's     gone                up  to  the sky.
2.             Satellite's     gone                way up  to  mars.
3.             Satellite's     gone                up  to  the sky.

   D                               G                               A7
E|-3---2---0---2-------0---2---3-|-------------3-----------------|-------------0-----------------|
B|-3---3---3---3-----------------|---------0-----------0---------|---------2-----------2---------|
G|-2-----------------------------|-----0-------------------0-----|-----0-------------------0-----|
D|-------------------------------|-------------------------------|-------------------------------|
A|-------------------------------|-------------------------------|-0-----------------------------|
E|-------------------------------|-3-----------------------------|-------------------------------|
   1   +   2   +   3   +   4   +   1   +   2   +   3   +   4   +   1   +   2   +   3   +   4   +
1.                                               Things like that drive me         out of my mind.
2.                                               Soon there'll be spaces         for parking cars.
3.                                               Things like that drive me         out of my mind.

   C                               D                               Em              D
E|-------------3-----------------|-3---2---0---2-------0---2---3-|---------------------3---2-----|
B|---------1-----------1---------|-3---3---3---3-----------------|-----------------3-------3-----|
G|-----0-------------------0-----|-2-----------------------------|-------------0-----------2-----|
D|-------------------------------|-------------------------------|---------2---------------0-----|
A|-3-----------------------------|-------------------------------|-----2-------------------------|
E|-------------------------------|-------------------------------|-0-----------------------------|
   1   +   2   +   3   +   4   +   1   +   2   +   3   +   4   +   1   +   2   +   3   +   4   +
1.                                                                         I     watched it for a
2.                                                                         I     watched it for a
3.                                                                         I     watched it for a 

   C                               Am                              C
E|-0-----------------------------|-------------0-----------------|-----------------3-----------3-|
B|-----1-------------------------|-----------------1-------------|-------------1-------1---------|
G|---------0---------------------|---------2-----------2---------|---------0---------------0-----|
D|-------------2-----------------|-----2-------------------2-----|-----2-------------------------|
A|-----------------3-------3---2-|-0---------------------------0-|-3-----------------------------|
E|-------------------------------|-------------------------------|-------------------------------|
   1   +   2   +   3   +   4   +   1   +   2   +   3   +   4   +   1   +   2   +   3   +   4   +
1. little  while.                      I   love to watch things on TV_____________________________
2. little  while.                      I   love to watch things on TV_____________________________
3. little  while.                      I   love to watch things on TV_____________________________

   C
E|---------3---------------------|
B|-1-----------------------------|
G|-----0-------------------------|
D|-------------------------------|
A|-------------------------------|
E|-------------------------------|
   1   +   2   +   3   +   4   +
1. _______.
2. _______.
3. _______.

Chorus
   G                               D                               F
E|-------------3-----------------|-------------2-----------------|-------------1-----------------|
B|---------0-----------0---------|---------3-----------3---------|---------1-----------1---------|
G|-----0-------------------0-----|-----2-------------------2-----|-----2-------------------2-----|
D|-------------------------------|-0-----------------------------|-3-----------------------------|
A|-------------------------------|-------------------------------|-------------------------------|
E|-3-----------------------------|-------------------------------|-------------------------------|
   1   +   2   +   3   +   4   +   1   +   2   +   3   +   4   +   1   +   2   +   3   +   4   +
   Ooh___________________________, Sa -tel-lite of Love!           Ah____________________________,

   C                               G                               D
E|-------------3-----------------|-------------3-----------------|-------------2-----------------|
B|---------1-----------1---------|---------0-----------0---------|---------3-----------3---------|
G|-----0-------------------0-----|-----0-------------------0-----|-----2-------------------2-----|
D|-------------------------------|-------------------------------|-0-----------------------------|
A|-3-----------------------------|-------------------------------|-------------------------------|
E|-------------------------------|-3-----------------------------|-------------------------------|
   1   +   2   +   3   +   4   +   1   +   2   +   3   +   4   +   1   +   2   +   3   +   4   +
   Sa -tel-lite of Love!           Ooh___________________________, Sa -tel-tel-lite of Love!

   G               D               C               D (This chord is actually held for 4 beats not 
E|-3---------------2-------------|-0---------------2-------------|  2.  It is a "stressed" chord,
B|-0---------------3-------------|-1---------------3-------------|  or some thing like that.) 
G|-0---------------2-------------|-0---------------2-------------|  
D|-0---------------0-------------|-2---------------0-------------|      
A|-------------------------------|-------------------------------|
E|-------------------------------|-------------------------------|
   1   +   2   +   3   +   4   +   1   +   2   +   3   +   4   +  
   Sa______-       tel_____-       lite           (of...)

Bridge
   G               D               C               D               C               D
E|---------3---------------2-----|---------0---------------2-----|---------0---------------2-----|
B|-------------0---------------3-|-------------1---------------3-|-------------1---------------3-|
G|-----0---------------2---------|-----0---------------2---------|-----0---------------2---------|
D|-0---------------0-------------|-2---------------0-------------|-2---------------0-------------|
A|-------------------------------|-------------------------------|-------------------------------|
E|-------------------------------|-------------------------------|-------------------------------|
   1   +   2   +   3   +   4   +   1   +   2   +   3   +   4   +   1   +   2   +   3   +   4   +
   I've    been    told       that you've  been    bored      with Har  -  ry,     Mark,   and

   G                               G               D               C               D
E|-3-----------------------------|---------3---------------2-----|---------0---------------2-----|
B|-0-----------------------------|-------------0---------------3-|-------------1---------------3-|
G|-0-----------------------------|-----0---------------2---------|-----0---------------2---------|
D|-0-----------------------------|-0---------------0-------------|-2---------------0-------------|
A|-------------------------------|-------------------------------|-------------------------------|
E|-------------------------------|-------------------------------|-------------------------------|
   1   +   2   +   3   +   4   +   1   +   2   +   3   +   4   +   1   +   2   +   3   +   4   +
   John.                           Sun  -  day,    Mon  -  day,    Tues  - day     Wednes -day...

   C               D               G
E|---------0---------------2-----|-3-----------------------------|
B|-------------1---------------3-|-0-----------------------------|
G|-----0---------------2---------|-0-----------------------------|
D|-2---------------0-------------|-0-----------------------------|
A|-------------------------------|-------------------------------|
E|-------------------------------|-------------------------------|
   1   +   2   +   3   +   4   +   1   +   2   +   3   +   4   +
   Har  -  ry,     Mark,   and     John.


Outro
G  A  C  G
Power chords strummed rhythmically one measure each,
Repeat many times with ad lib lyrics and fade. 


----------------------------------------------------------------------------


Author/Artist: U2/ Lou Reed
Title: Satellite of Love
Album: "One" single
Transcribed by: Benjamin Denes
Email: fdenes@mnsi.net

This is probably the closest version of this song that'll come along for
awhile. I always wanted to play this song, but couldn't find a decent 
tabbing of it. I tabbed this using the "One" single version rather than
the live performance from Sydney on video. For effects, I used very light
overdrive with subtle tremolo. I couldn't write any rhythm or timing 
instructions, so you'll have to listen to the song for it.

This is played over the first two verses:


--------2---------------------------------------------------------------------
--------------------4---------------7------9-8-----8------8-------------------
------3---3-------5---5--------------------8-8--10-8-8-10---------------------
---4--------4---6-------6---------9---9---------------------------------------
--------------------------------9-------9-------------------------------------
-2------------4-----------4---7-----------------------------------------------
                                                                              
"Sat - e - llite's gone - up - to the sky
Things like that drive me out of my mind"


------------------------------------------------------------------------------
-------------------------7-----------------------------------------7----------
----------8--6--------------------------------4-------------------------------
-------8--8--6--------9--------------------6-----6--------------6-----6-------
----6--------------9--------------------6-----------6--------6-----------6----
-6--------------7-----------7--7--6--4-----------------4--7-------------------
                                                                              
"I watched it for a little while...    I love to watch things on TV."


------------------------------------------------------------------------------
-7---------7---------7--------------------------------------------------------
------------------------------------------------------------------------------
----6---------6---------6-----------------------------------------------------
-------6---------6---------6--------------------------------------------------
------------------------------------------------------------------------------
                              
"Ooooh!"
                                                

-------2-------------------------------------------------2--------------------
-------------------6-------------9-------4h5p4-----------------------6-6h7p6--
-----3---3-------6-------------9---9-----4-4-4---------3---3-------6---6-6-6--
---4-------4---6-------------9-------9---------4-----4-------4---6------------
-------------4-------4-4-6-7-----------2---------2-------------4--------------
-2-------------------------------------------------2--------------------------
                                                                              
"Ooooh, satellite of love.  Ooooh, satellite of love. Ooooh,  satellite of love.





------------------------------------------------------------------------------
-8----6----4-----6------------------------------------------------------------
-8----6----4-----6------------------------------------------------------------
-8----6----4-----6------------------------------------------------------------
-6----4----2-----4------------------------------------------------------------
------------------------------------------------------------------------------
                                                                              
"Sa - te - llite..."


For the "I've been told, that you've been born, with Harry, Mark and John"
section, I just substitute the guitarless sound filler with the chords that
are used for the outro.

-----------------------------------------------------------------------------
-----------------------------------------------------------------------------
-3--3--3----5--5--5----8--8--8----3--3--3------------------------------------
-4--4--4----6--6--6----9--9--9----4--4--4------------------------------------
-4--4--4----6--6--6----9--9--9----4--4--4------------------------------------
-2--2--2----4--4--4----7--7--7----2--2--2------------------------------------

Play these chords over and over again to wrap up the song. Just listen to
the song for timing and rhthym and enjoy!


Tabbed by Benjamin Denes at the Zoo Factory
ZOO FACTORY - Better Tabbing Through Technology
-----------------------------------------------

Satellite Of Love

tabbed by: William Maton, 646379@acadvm1.uottawa.ca


These are the chords for Satellite of Love, U2's cover of the Lou Reed song:
(It can be found on the flip side of the 'One' single.)

G	   A7	   Cadd6     D
Satellites gone up to the sky	(Riff 1)

G	    A7		      Cadd6	D
Things like that drive me out of my mind (Riff 1)

Em(VII)		   D(V)   C(III)
I watched it for a little while	(Riff 2)

Am		C (Riff 3)
I love to watch things on TV

Chorus:

G(X)	D(X)
Oh	Satellite of Love
F(VIII) Cadd6(VIII)
Ah	Satellite of Love
G(X)	D(X)
	Satellite of Love
	G(X) D(X) Cadd6(VII) D(X)
	Sa - tel   -   lite

(The above chording throughout the versus and for the chorus is the same
 for the rest of the song except where noted.)

Satellites gone, way up to Mars
Soon it will be filled with parking cars
I watched it for a little while
I like to watch things on TV

Chorus

I've been told that you've been bored
With Harry, Mark and John
Monday, Tuesday, Wednesday, Friday,
Harry, Mark and John

Satellites gone up to the sky
Things like that drive me out of my mind
I watched it for a little while
I love to watch things on TV

Chorus

Ending:

G A Cadd6(VIII)

CHORDS:
G	3 2 0 0 0 3
A7	X 0 2 0 2 0
Cadd6	X 3 2 0 1 0
D	X X X 2 3 2

Em	7 7 9 9 8 7
D(V)	5 5 7 7 7 X
C(III)	3 3 5 5 5 X

Am	X 0 2 2 1 0
C	0 3 2 0 1 0

G(X)	    10 10 12 12 12 10
D(X)	    10 12 12 11 10 10
F(VIII)      8  8 10 10 10  8
Cadd6(VIII)  8 10 10  9  8  8

G	3 5 5 4 3 3
A	5 7 7 6 5 5


Not too sure about the chord naming above or even the following just
experiment!

Riff 1:				Riff 2:
D
--3-2-0-2-0-2-3-------		----------------------
--3-------------------		----------------------
--2-------------------		----------------------
----------------------		----------------------
----------------------		---3-2--0-------------
----------------------		----------------------

Riff 3
Cadd6		2x
-----3-----|-3--------
-------1---|---1------
---------0-|-----0----
---2-------|----------
-3---------|----------
-----------|----------



William F. Maton
646379@acadvm1.uottawa.ca
  development and support by
dmitry ivanov