rock
 
|tablatures   |lyrics   |discussion forums   |more tabs @ XGuitar.com

U2 tabs

Scarlet guitar tab

Scarlet

Music by U2
Lyrics by Bono
Transcribed by Brandon Leniart 

(this is a pretty simple song, and the key is kind of 
ambiguous because there's only 2 chords, but I think it's 
in G.  Just use all the reverb you've got to get the 
ambience of the track)

Rejoice...

1---14-------14------------------------------------------
2---15-------15-----------------------------12-------12--
3---14-------14-----------------------------12-------12--
4---0--------0------------------------------12-------12--
5--------------------------------------------------------(four
6--------------------------------------------------------times)

1---14--------------------------------------------------------
2-------------------15----------------------12----------------
3---------------------------------------------------------12--
4------------------------------------------------------------- (twice) 
5-------------------------------------------------------------
6-------------------------------------------------------------

1---14------------------------------------------------
2---15---------------------------------------10---12--
3--------------------------------------------12---12--
4--------------------------------------------12---12--
5-----------------------------------------------------
6-----------------------------------------------------

1---14-----14-----------------------------------------
2---15-----15-----------------------------12-----12---
3-----------------------------------------12-----12---
4-----------------------------------------------------(twice)
5-----------------------------------------------------
6-----------------------------------------------------


-- 
Leniart, Brandon K
leniarbk@jmu.edu
  development and support by
dmitry ivanov