rock
 
|tablatures   |lyrics   |discussion forums   |more tabs @ XGuitar.com

U2 tabs

Some Days Are Better Than Others bass tab

U2 "Some Days Are Better Than Others"
-------------------------------------
steve palmer am560@freenet.carleton.ca

Tune down 1/2 step to: Eb Ab Db Gb Bb Eb

Most of the music in this song is supplied by the bass (except for the
solo and outro). 

Main riff:

Gb|---------------------|----------------------|
Db|---------------------|----------------------|
Ab|-3/5-0-3-3-3-5-5-----|-3/5-0-3-3-3-5-5\0----|
Eb|---------------------|----------------------|
					  

[main riff]
Some days are dry, some days are leaky

[main riff]
Some days come clean, other days are sneaky

[riff #2:]
Gb|---------------------|----------------------|
Db|---------------------|----------------------|
Ab|-12//3---------------|----3//15-------------|(I put // because they
Eb|---------------------|----------------------| are long slides (timewise))
       Some days take less, but most days take more

[main riff]
Some slip through your fingers and onto the floor


[main riff]
Some days you're quick, but most days you're speedy

[main riff]
Some days you use more force than is necessary

[riff #3]
Gb|---------------------|----------------------|
Db|---------------------|----------------------|
Ab|-0-0-0---------------|---3-3-3--------------|
Eb|---------------------|----------------------|
        Some days just drop in on us

[main riff]
Some days are better than others


[verse:]
Gb|---------------------|----------------------|
Db|-------5-5-5-5-5-----|----------------------|
Ab|---------------------|--3-3-3-3-3-----------|
Eb|---------------------|----------------------|
     Some days   it        all adds up

[main riff]
And what you got is not enough

[verse]
Some days are better than others

[main riff]



Some days are slippy, other days sloppy
Some days you can't stand the sight of a puppy
Your skin is white but you think you're a brother
Some days are better than others

Some days you wake up with her complaining
Some sunny days you wish it was raining
Some days are sulky, some days have a grin
And some days have bouncers and won't let you in

Some days you hear a voice
Taking you to another place
Some days are better than others



Some days are honest, some days are not
Some days you're thankful for what you've got
Some days you wake up in the army
And some days it's the enemy

Some days are work, most days you're lazy
Some days you feel like a bit of a baby
Lookin' for Jesus and His mother
Some days are better than others

Some days you feel ahead
You're making sense of what she said
Some days are better than others

Some days you hear a voice
Taking you to another place
Some days are better than others

  development and support by
dmitry ivanov