rock
 
|tablatures   |lyrics   |discussion forums   |more tabs @ XGuitar.com

U2 tabs

Stories For Boys bass tab

U2 "Stories For Boys" -BASS TAB
-------------------------------
steve palmer am560@freenet.carleton.ca

Tune down 1/2 step: Eb AB Db Gb

During intro riff:
|----------------------------------|----------------------------------|
|----------------------------------|----------------------------------|
|--7-7-7-7-7-7-7-7-7-7-7-7-7-7-7-7-|-7-7-7-7-7-7-7-7-7-7-7-7-7-7-7-7--|
|----------------------------------|----------------------------------|


Main riff:
|------------------------|------------------------|
|------------------------|------------------------|
|--7---5-5-7-7/12-10-----|--7---5-5-7-7/12-10-----|
|----7-------------------|----7-------------------|


Verse:
|------------------------|------------------------|
|------------------------|------------------------|
|--7---5-5-7-7/12-10-----|--7---5-5-7-7/12-10-----|
|----7-------------------|----7-------------------|


|------------------------|------------------------|
|------------------------|------------------------|
|--7---7---7---7---------|--7---7---7---7---------|
|----7---7---7---7-------|----7---7---7---7-------|

				     /-played fast-\
|------------------------|-----------------------------------|
|------------------------|---------------5------7------------|
|--5-5-5-5---7-7-7-7-----|--5-5-5-5--3-3----5-5----3---------|
|------------------------|-----------------------------------|


  |------------------------|
  |------5------7----------|
  |--3-3----5-5----3-------|
  |------------------------|



Chorus:
          |------------------------|------------------------|
          |-----------------5-5----|-----------------5-5----|
          |--7-7--7-7--5-5---------|--7-7--7-7--5-5---------|
          |------------------------|------------------------|


(These parts make up the rest of the song.)

  development and support by
dmitry ivanov