rock
 
|tablatures   |lyrics   |discussion forums   |more tabs @ XGuitar.com

U2 tabs

Stories For Boys guitar tab

STORIES FOR BOYS
					u2


	bass riff
	|-----------------|-----------|
	|-----------------|------7-5--|
	|-7-7-7-7-5-5-5-7-|--7-7------|
	|-----------------|-----------|

Tune Down 1/2 Step

			  -enter drums
|---------3-|--------3-2-|------------|-------7---------|--------5---------|
|-------1---|------1-----|------------|-----5-----------|-----5------------|
|-----2-----|----2-------|------------|*--0-------------|---0-------------*|
|-----------|------------|------------|*----------------|-----------------*|
|-----------|------------|------------|--------55-44-33-|---------55-44-33-|
|--0--------|--0---------|------------|-0---------------|-0----------------|



|----0----|----0----|--3--5--3--5--3--3--5--|--2-0--|----0----|--2-0--|
|----0----|----0----|--3--3--3--3--3--3--5--|--0-0--|----0----|--0-0--|
|----0----|*---0----|----------------------*|-------|----0----|-------|
|----2----|*---2----|----------------------*|-------|----2----|-------|
|---------|---------|-----------------------|-------|----2----|-------|
|---------|---------|-----------------------|-------|----0----|-------|


		  CHORUS
Come and go....   Stories for Boys....		(natural harmonics)__________
 
|---888-888-8---|----0--|---0-|---0-|-0-7---5-|----12-|--7-----|-------|--7--|
|---888-888-8---|--0----|-----|-0---|-----0---|-12----|----7---|-------|--7--|
|*-------------*|*------|-2---|-----|--------*|-------|------7-|---7-5-|--7--|
|*-(5)-(7)-(5)-*|*------|-----|-----|--------*|-------|--------|-7-----|--7--|
|--(3)-(5)-(3)--|-------|-----|-----|---------|-------|--------|-------|-----|
|---------------|-------|-----|-----|---------|-------|--------|-------|-----|
\you can mirror
bass by playing
parentheses...\


	  			    (n.h.)
|---0----|    end |--12-12--12-12-|---12---|
|-----0--|	  |---------------|---12---|
|--------|	  |---------------|---12---|
|--------|	  |---------------|--------|
|--------|	  |---------------|--------|
|--------|        |---------------|--------|


This should have all the parts of the song... Many times the bass takes 
over, or at least supplies the rhythym, so in those cases you can just 
play the bass line or fool around like the edge with harmonics. 

TRANCRIBED BY: STEVE FORD and PETER SCHENK (wiglaf@falcon.cc.ukans.edu)
  development and support by
dmitry ivanov