rock
 
|tablatures   |lyrics   |discussion forums   |more tabs @ XGuitar.com

U2 tabs

The Electric Co. guitar tab

==================
U2 * The Electric Co.  

Corrections by Javier Cayuela 

These are my corrections to Nathan's tab. Now I think that the intro and the
chorus sounds perfect. I haven't include all the parts of the song, as many 
of them were O.K. You can make the full transcription with these corrections
and the previous tablature.

Use fast delay.

INTRO: (after the Cry part)

e|----------------|-----------------|-----------------|-----------------|
B|----------------|-----------------|-----------------|-----------------|
G|2-----5-----4---|---9----11---7---|-2-----5-----4---|---12--14--11----|
D|0-0-0-0-0-0-0-0-|-0-0-0-0-0-0-0-0-|-0-0-0-0-0-0-0-0-|-0-0-0-0-0-0-0-0-|
A|----------------|-----------------|-----------------|-----------------|
E|----------------|-----------------|-----------------|-----------------|

e|----------------|-----------------|-----------------|-------3---------|
B|----------------|-----------------|-----------------|-------3---------|
G|2-----5-----4---|---7-----9---7---|-2-----5-----4---|-------4---------|
D|0-0-0-0-0-0-0-0-|-0-0-0-0-0-0-0-0-|-0-0-0-0-0-0-0---|-------5---------|
A|----------------|-----------------|-----------------|-------5---------|
E|----------------|-----------------|-----------------|-------3---------|

e|--3------3---------2---3----2--------0---2-----0--------3-------3-----|
B|--3------3---------3---3----3--------3---3-----3--------3-------3-----|
G|--4------4---------2---2----2--------2---2-----2--------0-------0-----|
D|--5------5---------0---0----0--------0---0-----0--------0-------0-----|
A|--5------5------------------------------------------------------------|
E|--3------3------------------------------------------------------------|

e|--2---3---2---------2-------2--------2---x--x--x--3-|
B|--3---3---3---------3-------3--------3---x--x--x--3-|
G|--2---2---2---------2-------2--------2---x--x--x--2-|
D|--0---0---0---------0-------0--------0---x--x--x--0-|
A|----------------------------------------------------|
E|----------------------------------------------------|

e|--2--x--x--x--0----2--x--x--x--3-----2--x--x--x--0-----2--x--2--2--3--|
B|--3--x--x--x--3----3--x--x--x--3-----3--x--x--x--3-----3--x--3--3--3--|
G|--2--x--x--x--2----2--x--x--x--2-----2--x--x--x--2-----2--x--2--2--2--|
D|--0--x--x--x--0----0--x--x--x--0-----0--x--x--x--0-----0--x--0--0--0--|
A|----------------------------------------------------------------------|
E|----------------------------------------------------------------------|

                                                        Boy            

e|--2------x--2--0--0------------------15---------|
B|--3------x--3--3--3----------------------15-----|
G|--2------x--2--2--2----------12--12-------------|
D|--0------x--0--0--0-----------------------------|
A|------------------------------------------------|
E|------------------------------------------------|

 Stupid boy             Don't sit at the table


e|--------14-------2-----x--2--2---3------2-----x--2--0--0------------15-----|
B|------------13---3-----x--3--3---3------3-----x--3--3--3----------------15-|
G|-11--11----------2-----x--2--2---2------2-----x--2--2--2-----12--12--------|
D|-----------------0-----x--0--0---0------0-----x--0--0--0-------------------|
A|---------------------------------------------------------------------------|
E|---------------------------------------------------------------------------|

 until your able to        toy            broken    toy      You shout and shout


                CHORUS: 

e|--------14--------x---------8--------0---------------------2---3---2--0--2-|
B|------------13----x---------8--------0---------------------3---3---3--3--3-|
G|-11--11-----------x---------9--------9---------------------2---2---2--2--3-|
D|------------------x--------10-------10---------------------0---0---0--0--0-|
A|------------------x--------10-------10-------------------------------------|
E|------------------x---------8--------8-------------------------------------|

 You're inside out If you don't know                         The electric Co.

                                           


e|--------------8-------------0------------0-------------2--3--2--0--2---|
B|--------------8-------------0------------0-------------3--3--3--3--3---|
G|--------------9-------------9------------9-------------2--2--2--2--2---|
D|-------------10------------10-----------10-------------0--0--0--0--0---|
A|-------------10------------10-----------10-----------------------------|
E|--------------8-------------8------------8-----------------------------|

 If you don't know                                    The electric Co.



The rest of the song is pretty much the same.

The bridge and the solo parts sound great, but I play the final part of the

solo this way:


e|----------15----------------14------|
B|-------------15-----------------13--|
G|--12--12------------11--11----------|  Play this several times,
D|------------------------------------|
A|------------------------------------|           then
E|------------------------------------|



e|--15-------14---------15-------14---------------------------15-15-15-15----|
B|------15-------13---------15-------13----Getting faster--------------------|
G|---------------------------------------------------------------------------| 
D|---------------------------------------------------------------------------|
A|---------------------------------------------------------------------------|
E|---------------------------------------------------------------------------|


Finally the outro:

e|--2----2--2--2--2-2--3-3--3-3---7--5--|
B|--3----3--3--3--3-3--3-3--3-3---7--5--|
G|--2----2--2--2--2-2--0-0--0-0---0--0--|
D|--0----0--0--0--0-0--0-0--0-0---------|
A|--------------------------------------|
E|--------------------------------------|

Any comments?


*correction*
==================
"The Electric Co."
==================
nigelolympus@tinet.ie

Use a 270 ms delay for the intro.

Here is the way I play the solo:
1|--------------------------------|     |---------------------------------|
2|--------------------------------|     |---------------------------------|
3|-7---7---7---7---7---7---7---7--| (x3)|-7---7---7---7---7--/17----------|
4|-0---0---0---0---0---0---0---0--|     |-0---0---0---0---0---------------|
5|--------------------------------|     |---------------------------------|
6|--------------------------------|     |---------------------------------|
   1   &   2   &   3   &   4   &           1   &   2   &   3   &   4   &

1|--------------------------------|     |---------------------------------|
2|--------------------------------|     |---------------------------------|
3|-17--17--16--16--19--19--16--16-| (x2)|-17--16--19--16--17--16--19--16--| (x2)
4|-0---0---0---0---0---0---0---0--|     |-0---0---0---0---0---0---0---0---|
5|--------------------------------|     |---------------------------------|
6|--------------------------------|     |---------------------------------|
   1   &   2   &   3   &   4   &           1   &   2   &   3   &   4   &

1|---------------------------------|-------------------------------|
2|---------------------------------|-------------------------------|
3|-17----------16----------14------|---12--9--/11------12------11--|  \
4|-0-----------0-----------0-------|---0---0-----------0-------0---|   \
5|---------------------------------|-------------------------------|    |
6|---------------------------------|-------------------------------|    | 
   1   &   2   &   3   &   4   &   1   &   2   &   3   &   4   &         \
                                                                          }
(x2)
1|---------------------------------|-------------------------------|     /
2|---------------------------------|-------------------------------|    |
3|---------7-----------2-----------|-------------------------------|    |
4|---------0-----------0-----------|--------------------------(0)--|   /
5|---------------------------------|-------------------------------|  /
6|---------------------------------|-------------------------------|
   1   &   2   &   3   &   4   &   1   &   2   &   3   &   4   &




Javier Cayuela 

------------------------------------------------------------------------------

U2
The Electric Co.  

tabbed by Nathan OíNeal (noneal@imt.net)


(tuned down 1/2 step)
---------------------------------------------------------------------
-12--12--12--12--------------------------------------------------play-----
-11--11--11---9---------------------------------------------------this------
 -9---9---9---9-------2*-------9---9---9---9---9---9---9--9---wholething----
---------------------------------------------------------------3times ------
Somebody Cry .....                              ...Cry

 
|----------------|-----------------|-----------------|-----------------|
|----------------|-----------------|-----------------|-----------------|
|2-----5-----4---|---9-----11--7---|-2-----5-----4---|---12--14--11----|
|0-0-0-0-0-0-0-0-|-0-0-0-0-0-0-0-0-|-0-0-0-0-0-0-0-0-|-0-0-0-0-0-0-0-0-|
|----------------|-----------------|-----------------|-----------------|
|----------------|-----------------|-----------------|-----------------|
Edge mutes the strings with his palm



|----------------|-----------------|-----------------|-------3---------|
|----------------|-----------------|-----------------|-------3---------|
|2-----5-----4---|---9-----11--7---|-2-----5-----4---|-------0---------|
|0-0-0-0-0-0-0-0-|-0-0-0-0-0-0-0-0-|-0-0-0-0-0-0-0---|-------0---------|
|----------------|-----------------|-----------------|-----------------|
|----------------|-----------------|-----------------|-----------------|


|--3------3------|--2---3----2-----|--0---2-----0----|---3-------3-----|
|--3------3------|--3---3----3-----|--3---3-----3----|---3-------3-----|
|--0------0------|--2---2----2-----|--2---2-----2----|---0-------0-----|
|--0------0------|--0---0----0-----|--0---0-----0----|---0-------0-----|
|----------------|-----------------|-----------------|-----------------|
|----------------|-----------------|-----------------|-----------------|


|--2---3---2-----|---2-------2-----|--2---x--x--x--3-|
|--3---3---3-----|---3-------3-----|--3---x--x--x--3-|
|--2---2---2-----|---2-------2-----|--2---x--x--x--2-|
|--0---0---0-----|---0-------0-----|--0---x--x--x--0-|
|----------------|-----------------|-----------------|
|----------------|-----------------|-----------------|

|--2--x--x--x--0-|--2--x--x--x--3--|--2--x--x--x--0--|--2--x--2--2--3--|
|--3--x--x--x--3-|--3--x--x--x--3--|--3--x--x--x--3--|--3--x--3--3--3--|
|--2--x--x--x--2-|--2--x--x--x--2--|--2--x--x--x--2--|--2--x--2--2--2--|
|--0--x--x--x--0-|--0--x--x--x--0--|--0--x--x--x--0--|--0--x--0--0--0--|
|----------------|-----------------|-----------------|-----------------|
|----------------|-----------------|-----------------|-----------------|

                                                        Boy            



|--2------x--2--0--0-------|---15-----------------|
|--3------x--3--3--3-------|----------15----------|
|--2------x--2--2--2-------|------------------14--|
|--0------x--0--0--0-------|-----------------------|
|--------------------------|-----------------------|
|--------------------------|-----------------------|

Stupid boy                         You donít sit at the table......

|----14---------|-2-----x--2--2---3----|--2------x--2--0--0-------|---15------------------|
|-------15------|-3-----x--3--3---3----|--3------x--3--3--3-------|------------15---------|
|------------14-|-2-----x--2--2---2----|--2------x--2--2--2-------|--------------------14-|
|---------------|-0-----x--0--0---0----|--0------x--0--0--0-------|-----------------------|
|---------------|----------------------|--------------------------|-----------------------|
|---------------|----------------------|--------------------------|-----------------------|

until your able to         toy             broken    toy              You shout and shout......

|----14---------|--0--------------|--3-----------------------|--2---3---2--0--2-|
|-------15------|--1--------------|--3-----------------------|--3---3---3--3--3-|
|------------14-|--0--------------|--0-----------------------|--2---2---2--2--3-|
|---------------|--2--------------|--0-----------------------|--0---0---0--0--0-|
|---------------|--3--------------|--2-----------------------|------------------|
|---------------|-----------------|--3-----------------------|------------------|

Youíre inside out   If you dont know                         Electric co


|--0---------------------|--3------------------------|--2--3--2--0--2---|
|--1---------------------|--3------------------------|--3--3--3--3--3---|
|--0---------------------|--0------------------------|--2--2--2--2--2---|
|--2---------------------|--0------------------------|--0--0--0--0--0---|
|--3---------------------|--2------------------------|------------------|
|------------------------|--3------------------------|------------------|
      If you dont.....                                    Electric co


|--2----x--x--x--3---|--2---x--x--x---0--|--2---x--x--x--3----|---2----x--x--x--0----|
|--3----x--x--x--3---|--3---x--x--x---3--|--3---x--x--x--3----|---3----x--x--x--3----|
|--2----x--x--x--2---|--2---x--x--x---2--|--2---x--x--x--2----|---2----x--x--x--2----|
|--0----x--x--x--0---|--0---x--x--x---0--|--0---x--x--x--0----|---0----x--x--x--0----|
|--------------------|-------------------|--------------------|----------------------|
|--------------------|-------------------|--------------------|----------------------|


|--2--x--2--2--3--|--2------x--2--0--0-------|---15-----------------|
|--3--x--3--3--3--|--3------x--3--3--3-------|----------15----------|
|--2--x--2--2--2--|--2------x--2--2--2-------|------------------14--|
|--0--x--0--0--0--|--0------x--0--0--0-------|----------------------|
|-----------------|--------------------------|----------------------|
|-----------------|--------------------------|----------------------|   
   
    Red               Running  red             Play for real                                                        

|----14--------|-2-----x--2--2---3----|--2------x--2--0--0-------|---15------------------|
|-------15-----|-3-----x--3--3---3----|--3------x--3--3--3-------|------------15---------|
|-----------14-|-2-----x--2--2---2----|--2------x--2--2--2-------|--------------------14-|
|--------------|-0-----x--0--0---0----|--0------x--0--0--0-------|-----------------------|
|--------------|----------------------|--------------------------|-----------------------|
|--------------|----------------------|--------------------------|-----------------------|

The toy can feel    Hole               In your head                     You dont shout

|----14------------|--0----------------|--3----------------------|--2-------3-------2-----|
|-------15---------|--1----------------|--3----------------------|--3-------3-------3-----|
|---------------14-|--0----------------|--0----------------------|--2-------2-------2-----|
|------------------|--2----------------|--0----------------------|--0-------0-------0-----|
|------------------|--3----------------|--2----------------------|------------------------|
|------------------|-------------------|--3----------------------|------------------------|

Youíre spoon fed    If you dont know                              Electric co


|--0---------------------|--3------------------------|--2--3--2--0--2-|
|--1---------------------|--3------------------------|--3--3--3--3--3-|
|--0---------------------|--0------------------------|--2--2--2--2--2-|
|--2---------------------|--0------------------------|--0--0--0--0--0-|
|--3---------------------|--2------------------------|----------------|
|------------------------|--3------------------------|----------------|

      If you dont.....                                Electric co

|----------------|-----------------|-----------------|-----------------|
|----------------|-----------------|-----------------|-----------------|
|2-----5-----4---|---9-----11--7---|-2-----5-----4---|---12--14--11----|
|0-0-0-0-0-0-0-0-|-0-0-0-0-0-0-0-0-|-0-0-0-0-0-0-0-0-|-0-0-0-0-0-0-0-0-|
|----------------|-----------------|-----------------|-----------------|
|----------------|-----------------|-----------------|-----------------|


|----------------|-----------------|-----------------|-----------------|
|----------------|-----------------|-----------------|-----------------|
|2-----5-----4---|---9-----11--7---|-2-----5-----4---|-----------------|
|0-0-0-0-0-0-0-0-|-0-0-0-0-0-0-0-0-|-0-0-0-0-0-0-0---|-----------------|
|----------------|-----------------|-----------------|-----------------|
|----------------|-----------------|-----------------|-----------------|

                                                                        harmonics
|---7--------------------|---7-----------------------|-----7------------------------|
|---9--------------------|---9-----------------------|-----9----------------(12)----|
|---9--------------------|---9-----------------------|-----9----------------(12)----|
|---9--------------------|---9-----------------------|-----9----------------(12)----|
|---7--------------------|---7-----------------------|-----7------------------------|
|---7--------------------|---7-----------------------|-----7------------------------|


|---7--------------------|---7-----------------------|-------------------------(7)---|
|---9--------------------|---9-----------------------|-----(12)--------(7)-----(7)---|
|---9--------------------|---9-----------------------|-----(12)--------(7)-----------|
|---9--------------------|---9-----------------------|-----(12)--------(7)-----------|
|---7--------------------|---7-----------------------|-------------------------------|
|---7--------------------|---7-----------------------|-------------------------------|

|---------------------|----------------------|----------------------------|
|---------------------|----------------------|----------------------------| Ad lib here with 
|---/7--7-7-7-7-7-7-7-|-7-7-7-7-7-7-7-7-7-7-7|-7-7-7-7-7-7-7-7-7-7-7-7/---| harmonics and 
|---------------------|----------------------|----------------------------| bends  
|---------------------|----------------------|----------------------------| 
|---------------------|----------------------|----------------------------|

SOLO

|----------------------------------------------------------------------------------|
|-----------15---------------15----------15----------15----------15----------15----|
|--17-17-16-----16--17-17-16----16-17-16----16-17-16----16-17-16----16-17-16----16-|
|----------------------------------------------------------------------------------|
|----------------------------------------------------------------------------------|
|----------------------------------------------------------------------------------|
          
                   

|--------------------------------|----------------------------------|  
|-16/17-16-14-12-11-12-9/10-7-2--|-16/17-16-14-12-11-12-9/10-7-2----|
|----------------------0---------|-----------------------------0----|  
|--------------------------------|----------------------------------|
|--------------------------------|----------------------------------|
|--------------------------------|----------------------------------|


|-----------------------------|-------------------------------|---------------------------|
|-----------------------------|-------------------------------|---------------------------|
|-----2------4------5------7--|-----2-------4-----5----7------|-----------muted by palm---|
|--0-------0------0-----0-----|--0--------0----0----0---------|-0-0-0-0-0-0-0-0-0-0-0-0-0-|
|-----------------------------|-------------------------------|---------------------------|
|-----------------------------|-------------------------------|---------------------------|


|-------15----------14----------15----------14------|
|-x-x-x----15-x-x-x----13-x-x-x---15--x-x-x----13---|
|---------------------------------------------------|
|---------------------------------------------------|
|---------------------------------------------------|
|---------------------------------------------------|


|----15--------14--------15--------14------|---15-----14----15----14-----15-|
|--------15---------13--------15--------13-|------15-----13----15----13--13-|
|------------------------------------------|--------------------------------|
|------------------------------------------|--------------------------------|
|------------------------------------------|--------------------------------|
|------------------------------------------|--------------------------------|


|--0-------------------------|--3-------------------|--2--3-2-0-2---|
|--1-------------------------|--3-------------------|--3--3-3-3-3---|
|--0-------------------------|--0-------------------|--2--2-2-2-2---|
|--2-------------------------|--0-------------------|--0--0-0-0-0---|
|--3-------------------------|--2-------------------|---------------|
|----------------------------|--3-------------------|---------------|

  If you dont know                                        Electric co


|--0---------------------|--3------------------------|--2--3--2--0--2-|
|--1---------------------|--3------------------------|--3--3--3--3--3-|
|--0---------------------|--0------------------------|--2--2--2--2--2-|
|--2---------------------|--0------------------------|--0--0--0--0--0-|
|--3---------------------|--2------------------------|----------------|
|------------------------|--3------------------------|----------------|
    If you dont.....                                       Electric co


Repeat above how ever many times

|----------------|-----------------|-----------------|-----------------|
|----------------|-----------------|-----------------|-----------------|
|2-----5-----4---|---9-----11--7---|-2-----5-----4---|---12--14--11----|
|0-0-0-0-0-0-0-0-|-0-0-0-0-0-0-0-0-|-0-0-0-0-0-0-0-0-|-0-0-0-0-0-0-0-0-|
|----------------|-----------------|-----------------|-----------------|
|----------------|-----------------|-----------------|-----------------|


|----------------|-----------------|-----------------|-----------------|
|----------------|-----------------|-----------------|-----------------|
|2-----5-----4---|---9-----11--7---|-2-----5-----4---|-----------------|
|0-0-0-0-0-0-0-0-|-0-0-0-0-0-0-0-0-|-0-0-0-0-0-0-0---|-----------------|
|----------------|-----------------|-----------------|-----------------|
|----------------|-----------------|-----------------|-----------------|


|--2-------2-----2----|--2---2-----2------|--3----3----3------|---3--------3-----5----3---|
|--3-------3-----3----|--3---3-----3------|--3----3----3------|---3--------3-----3----3---|
|--2-------2-----2----|--2---2-----2------|--2----2----2------|---2--------2-----2----2---|
|--0-------0-----0----|--0---0-----0------|--0----0----0------|---0--------0-----0----0---|
|---------------------|-------------------|-------------------|---------------------------|
|---------------------|-------------------|-------------------|---------------------------|

or

|--5------------------|--5----------------|-5-----------------|---5-------5-----5---3---|
|--7------------------|--7----------------|-8-----------------|---8-------8-----6---4---|
|--7------------------|--7----------------|-7-----------------|---7-------7-----7---5---|
|--7------------------|--7----------------|-7-----------------|---7-------7-----7---5---|
|--5------------------|--5----------------|-5-----------------|---5-------5-----5---3---|
|--5------------------|--5----------------|-5-----------------|---5-------5-----5---3---|

Fade  till end

Please send any comments or corrections to me at noneal@imt.net



==============================================================



================
The Electric Co.
================  

162 beat for minute

INTRO

  Guitar I
  P.M. . . . . . . . . . . . . . . . . . . . . . . . . . . . . . . 
1|---------------------------------|-------------------------------|
2|---------------------------------|-------------------------------|
3|-2---2-2-----5---5-5-----4---4-4-|---9---9-9----11-------7-------|
4|-0-0-0-0-0-0-0-0-0-0-0-0-0-0-0-0-0-0-0-0-0-0-0-0-0-0-0-0-0-0-0-0-|
5|---------------------------------|-------------------------------|
6|---------------------------------|-------------------------------|
   1   +   2   +   3   +   4   +   1   +   2   +   3   +   4   + 

   . . . . . . . . . . . . . . . . . . . . . . . . . . . . . . . .
1|---------------------------------|-------------------------------|
2|---------------------------------|-------------------------------|
3|-2---2-2-----5---5-5-----4---4-4-|--12----12----14------11-------|
4|-0-0-0-0-0-0-0-0-0-0-0-0-0-0-0-0-0-0-0-0-0-0-0-0-0-0-0-0-0-0-0-0-|
5|---------------------------------|-------------------------------|
6|---------------------------------|-------------------------------|
   1   +   2   +   3   +   4   +   1   +   2   +   3   +   4   + 

   . . . . . . . . . . . . . . . . . . . . . . . . . . . . . . . .
1|---------------------------------|-------------------------------|
2|---------------------------------|-------------------------------|
3|-2---2-2-----5---5-5-----4---4-4-|---9---9-9----11-------7-------|
4|-0-0-0-0-0-0-0-0-0-0-0-0-0-0-0-0-0-0-0-0-0-0-0-0-0-0-0-0-0-0-0-0-|
5|---------------------------------|-------------------------------|
6|---------------------------------|-------------------------------|
   1   +   2   +   3   +   4   +   1   +   2   +   3   +   4   + 

                                                    Guitar I
                                                    Doubled by Guitar II
   . . . . . . . . . . . . 
1|---------------------------------|---------------------------3---|
2|---------------------------------|---------------------------3---|
3|-2---2-2-----5---5-5-----4-------|---------------------------0---|
4|-0-0-0-0-0-0-0-0-0-0-0-0-0-------|---------------------------0---|
5|---------------------------------|-------------------------------|
6|---------------------------------|-------------------------------|
   1   +   2   +   3   +   4   +   1   +   2   +   3   +   4   + 

1|-3-------------------------------3-----------------------3-------|
2|-3-------------------------------3-----------------------3-------|
3|-0-------------------------------0-----------------------0-------|
4|-0-------------------------------0-----------------------0-------|
5|---------------------------------|-------------------------------|
6|---------------------------------|-------------------------------|
   1   +   2   +   3   +   4   +   1   +   2   +   3   +   4   + 

1|-2-----------3-----------2-------|---0-----------------------3---|
2|-3-----------3-----------3-------|---3-----------------------3---|
3|-2-----------2-----------2-------|---2-----------------------0---|
4|-0-----------0-----------0-------|---0-----------------------0---|
5|---------------------------------|-------------------------------|
6|---------------------------------|-------------------------------|
   1   +   2   +   3   +   4   +   1   +   2   +   3   +   4   + 

1|-3-------------------------------3-----------------------3-------|
2|-3-------------------------------3-----------------------3-------|
3|-0-------------------------------0-----------------------0-------|
4|-0-------------------------------0-----------------------0-------|
5|---------------------------------|-------------------------------|
6|---------------------------------|-------------------------------|
   1   +   2   +   3   +   4   +   1   +   2   +   3   +   4   + 

1|-2-----------3-----------2-------|-------------------------------|
2|-3-----------3-----------3-------|-------------------------------|
3|-2-----------2-----------2-------|-------------------------------|
4|-0-----------0-----------0-------|-------------------------------|
5|---------------------------------|-------------------------------|
6|---------------------------------|-------------------------------|
   1   +   2   +   3   +   4   +   1   +   2   +   3   +   4   +


1|-2-------x---x---x---3-----------2-------x---x---x---0-----------|
2|-3-------x---x---x---3-----------3-------x---x---x---3-----------|
3|-2-------x---x---x---2-----------2-------x---x---x---2-----------|
4|-0-------x---x---x---0-----------0-------x---x---x---0-----------|
5|---------------------------------|-------------------------------|
6|---------------------------------|-------------------------------|
   1   +   2   +   3   +   4   +   1   +   2   +   3   +   4   + 
 
1|-2-------x---x---x---3-----------2-------x---x---x---0-----------|
2|-3-------x---x---x---3-----------3-------x---x---x---3-----------|
3|-2-------x---x---x---2-----------2-------x---x---x---2-----------|
4|-0-------x---x---x---0-----------0-------x---x---x---0-----------|
5|---------------------------------|-------------------------------|
6|---------------------------------|-------------------------------|
   1   +   2   +   3   +   4   +   1   +   2   +   3   +   4   + 

VERSE :

1|-2-------x---x---x---3-----------2-------x---x---x---0-----------|
2|-3-------x---x---x---3-----------3-------x---x---x---3-----------|
3|*2-------x---x---x---2-----------2-------x---x---x---2-----------|
4|*0-------x---x---x---0-----------0-------x---x---x---0-----------|
5|---------------------------------|-------------------------------|
6|---------------------------------|-------------------------------|
   1   +   2   +   3   +   4   +   1   +   2   +   3   +   4   + 
1. Boy,                Stupid      Boy                    Don't
2. Red                 Running    red

  (Guitar I only)
1|----15---------------------------|--14---------------------------|
2|15----------15------------------13----------13-------------------|
3|--------------------14-----------|------------------12-----------|
4|-------------------------0-------|-----------------------0-------|
5|---------------------------------|-------------------------------|
6|---------------------------------|-------------------------------|
   1   +   2   +   3   +   4   +   1   +   2   +   3   +   4   + 
  Sit  at the   ta - ble  un   -  til you're     able     to
Play   for     real     the     toy     can    feel

  (Guitar I & guitar II)
1|-2-------x---x---x---3-----------2-------x---x---x---0-----------|
2|-3-------x---x---x---3-----------3-------x---x---x---3-----------|
3|-2-------x---x---x---2-----------2-------x---x---x---2-----------|
4|-0-------x---x---x---0-----------0-------x---x---x---0-----------|
5|---------------------------------|-------------------------------|
6|---------------------------------|-------------------------------|
   1   +   2   +   3   +   4   +   1   +   2   +   3   +   4   + 
  Toy,                 broken     toy                          You
  Hole_______ in_______  your____ head

  (Guitar I only)
1|----15---------------------------|--14---------------------------|

2|15----------15------------------13----------13-------------------|
3|--------------------14-----------|------------------12-----------|
4|-------------------------0-------|-----------------------0-------|
5|---------------------------------|-------------------------------|
6|---------------------------------|-------------------------------|
   1   +   2   +   3   +   4   +   1   +   2   +   3   +   4   + 
 Shout  and___  shout  you're    in  -  side   out__   If you
  You   don't  sho - ut           you spoon__  fed__   If you


CHORUS :

  (Guitar I & guitar II)
  Let ring . . . . . . . . . . . . . . . . . . . . . . . . . . . .
1|-0-------------------------------3-----------------------0-------|
2|-1-------------------------------3-------------------------------|
3|-0-----------------------0-------0-------------------------------|
4|-2-----------------------2-------0-------------------------------|
5|-3-----------------------3-------2-------------------------------|
6|---------------------------------3-------------------------------|
   1   +   2   +   3   +   4   +   1   +   2   +   3   +   4   + 
  Don't_________ know_____________                     e   - 

   . . . . . . . . . . . . . . . . . . . . . . . . . . . . . . . .
1|-------------0-------------------|-------------------------------|
2|-------------------------3-------|-------------------------------|
3|-2-------------------------------|---2---------------------------|
4|---------------------------------|---------------0---------------|
5|---------------------------------|-------------------------------|
6|---------------------------------|-------------------------------|
   1   +   2   +   3   +   4   +   1   +   2   +   3   +   4   + 
- le   -   c  -  tric     Co.______________________   If  you

  __________________________________________________________________
 /1
   . . . . . . . . . . . . . . . . . . . . . . . . . . . . . . . .
1|-0-------------------------------3-----------------------0-------|
2|-1-------------------------------3-------------------------------|
3|-0-----------------------0-------0-------------------------------|
4|-2-----------------------2-------0-------------------------------|
5|-3-----------------------3-------2-------------------------------|
6|---------------------------------3-------------------------------|
   1   +   2   +   3   +   4   +   1   +   2   +   3   +   4   + 
  Don't_________________ know_____________________       e   - 


  _________________________________________________________________
                                                                   
   . . . . . . . . . . . . . . . . . . . . . . . . . . . . . . . .
1|-------------0-------------------|-------------------------------|
2|-------------------------3-------|-------------------------------|
3|-2-------------------------------|---2---------------------------|
4|---------------------------------|---------------0---------------|
5|---------------------------------|-------------------------------|
6|---------------------------------|-------------------------------|
   1   +   2   +   3   +   4   +   1   +   2   +   3   +   4   + 
- le   -   c  -  tric     Co.______________________ 

  _________________________________________________________________

1|-2-------x---x---x---3-----------2-------x---x---x---0-----------|
2|-3-------x---x---x---3-----------3-------x---x---x---3-----------|
3|-2-------x---x---x---2-----------2-------x---x---x---2-----------|
4|-0-------x---x---x---0-----------0-------x---x---x---0-----------|
5|---------------------------------|-------------------------------|
6|---------------------------------|-------------------------------|
   1   +   2   +   3   +   4   +   1   +   2   +   3   +   4   + 
  _________________________________________________________________
                                                              to * |
1|-2-------x---x---x---3-----------2-------x---x---x---0-----------|
2|-3-------x---x---x---3-----------3-------x---x---x---3-----------|

3|-2-------x---x---x---2-----------2-------x---x---x---2-----------|
4|-0-------x---x---x---0-----------0-------x---x---x---0-----------|
5|---------------------------------|-------------------------------|
6|---------------------------------|-------------------------------|
   1   +   2   +   3   +   4   +   1   +   2   +   3   +   4   + 

  __________________________________________________________________
 /2
   . . . . . . . . . . . . . . . . . . . . . . . . . . . . . . . .
1|-0-------------------------------3-----------------------0-------|
2|-1-------------------------------3-------------------------------|
3|-0-----------------------0-------0-------------------------------|
4|-2-----------------------2-------0-------------------------------|
5|-3-----------------------3-------2-------------------------------|
6|---------------------------------3-------------------------------|
   1   +   2   +   3   +   4   +   1   +   2   +   3   +   4   + 
  Don't_________________ know_____________________       e   - 


  _________________________________________________________________
 
   . . . . . . . . . . . . . . . . . . . . . . . . . . . . . . . .
1|-------------0-------------------|-------------------------------|
2|-------------------------3-------|-------------------------------|
3|-2-------------------------------|---2---------------------------|
4|---------------------------------|-------------------------------|
5|---------------------------------|-------------------------------|
6|---------------------------------|-------------------------------|
   1   +   2   +   3   +   4   +   1   +   2   +   3   +   4   + 
- le   -   c  -  tric     Co.______________________ 

  Guitar I
  P.M. . . . . . . . . . . . . . . . . . . . . . . . . . . . . . . 
1|---------------------------------|-------------------------------|
2|---------------------------------|-------------------------------|
3|-2---2-2-----5---5-5-----4---4-4-|---9---9-9----11-------7-------|
4|-0-0-0-0-0-0-0-0-0-0-0-0-0-0-0-0-0-0-0-0-0-0-0-0-0-0-0-0-0-0-0-0-|
5|---------------------------------|-------------------------------|
6|---------------------------------|-------------------------------|
   1   +   2   +   3   +   4   +   1   +   2   +   3   +   4   + 

   . . . . . . . . . . . . . . . . . . . . . . . . . . . . . . . .
1|---------------------------------|-------------------------------|
2|---------------------------------|-------------------------------|
3|-2---2-2-----5---5-5-----4---4-4-|--12----12----14------11-------|
4|-0-0-0-0-0-0-0-0-0-0-0-0-0-0-0-0-0-0-0-0-0-0-0-0-0-0-0-0-0-0-0-0-|
5|---------------------------------|-------------------------------|
6|---------------------------------|-------------------------------|
   1   +   2   +   3   +   4   +   1   +   2   +   3   +   4   + 

   . . . . . . . . . . . . . . . . . . . . . . . . . . . . . . . .
1|---------------------------------|-------------------------------|
2|---------------------------------|-------------------------------|
3|-2---2-2-----5---5-5-----4---4-4-|---9---9-9----11-------7-------|
4|-0-0-0-0-0-0-0-0-0-0-0-0-0-0-0-0-0-0-0-0-0-0-0-0-0-0-0-0-0-0-0-0-|
5|---------------------------------|-------------------------------|
6|---------------------------------|-------------------------------|
   1   +   2   +   3   +   4   +   1   +   2   +   3   +   4   + 

   . . . . . . . . . . . . 
1|---------------------------------|-------------------------------|
2|---------------------------------|-------------------------------|
3|-2---2-2-----5---5-5-----4-------|-------------------------------|
4|-0-0-0-0-0-0-0-0-0-0-0-0-0-------|-------------------------------|
5|---------------------------------|-------------------------------|
6|---------------------------------|-------------------------------|
   1   +   2   +   3   +   4   +   1   +   2   +   3   +   4   + 

1|-0-------------------------------|-------------------------------|
2|-0-------------------------------|-------------------------------|
3|-9-------------------------------|-------------------x---x-------|
4|-9-------------------------------|-------------------x---x-------|
5|-7-------------------------------|-------------------x---x-------|
6|---------------------------------|-------------------------------|
   1   +   2   +   3   +   4   +   1   +   2   +   3   +   4   + 

                                    n.h.
1|-0-------------------------------|-------------------------------|
2|-0-------------------------------|--12---------------------------|
3|-9-------------------------------|--12---------------x---x-------|
4|-9-------------------------------|--12---------------x---x-------|
5|-7-------------------------------|-------------------x---x-------|
6|---------------------------------|-------------------------------|
   1   +   2   +   3   +   4   +   1   +   2   +   3   +   4   + 

1|-0-------------------------------|---0---------------x---x---x---|
2|-0-------------------------------|---0---------------x---x---x---|
3|-9-------------------------------|-------------------x---x---x---|
4|-9-------------------------------|-------------------------------|
5|-7-------------------------------|-------------------------------|
6|---------------------------------|-------------------------------|
   1   +   2   +   3   +   4   +   1   +   2   +   3   +   4   + 

            n.h. . . . . . . . . . . . .
1|-0-------------------------------|-------------------------------|
2|-0----------12-----------7-------|---5---------------------------|
3|-9----------12-----------7-------|---5---------------------------|
4|-9----------12-----------7-------|---5---------------------------|
5|-7-------------------------------|-------------------------------|
6|---------------------------------|-------------------------------|
   1   +   2   +   3   +   4   +   1   +   2   +   3   +   4   + 

SOLO :

/    Guitar I
| 1|---------------------------------|-------------------------------|
| 2|---------------------------------|-------------------------------|
| 3|/7-----7-7---7---7---7---7---7---7---7---7---7---7---7---7---7---|
| 4|-0-----0-0---0---0---0---0---0---0---0---0---0---0---0---0---0---|
| 5|---------------------------------|-------------------------------|
| 6|---------------------------------|-------------------------------|
|    1   +   2   +   3   +   4   +   1   +   2   +   3   +   4   + 
|
|    Guitar II
| 1|---------------------------------|-------------------------------|
| 2|-3---3---3---3---3---3---3---3---3---3---3---3---3---3---3---3---|
| 3|-2---2---2---2---2---2---2---2---2---2---2---2---2---2---2---2---|
| 4|-0---0---0---0---0---0---0---0---0---0---0---0---0---0---0---0---|
| 5|---------------------------------|-------------------------------|
| 6|---------------------------------|-------------------------------|
\    1   +   2   +   3   +   4   +   1   +   2   +   3   +   4   + 


/
| 1|---------------------------------|-------------------------------|
| 2|---------------------------------|-------------------------------|
| 3|-7---7---7---7---7---7---7---7---7---7---7---7---7---7---/-(17)--|
| 4|-0---0---0---0---0---0---0---0---0---0---0---0---0---0-----------|
| 5|---------------------------------|-------------------------------|
| 6|---------------------------------|-------------------------------|
|    1   +   2   +   3   +   4   +   1   +   2   +   3   +   4   +
|
| 1|---------------------------------|-------------------------------|

| 2|-3---3---3---3---3---3---3---3---3---3---3---3---3---3---3---3---|
| 3|-2---2---2---2---2---2---2---2---2---2---2---2---2---2---2---2---|
| 4|-0---0---0---0---0---0---0---0---0---0---0---0---0---0---0---0---|
| 5|---------------------------------|-------------------------------|
| 6|---------------------------------|-------------------------------|
\    1   +   2   +   3   +   4   +   1   +   2   +   3   +   4   + 


/
| 1|---------------------------------|-------------------------------|
| 2|---------------------------------|-------------------------------|
| 3|----17--16--16--19--19--16--16--17--17--16--16--19--19--16--16---|
| 4|-----0---0---0---0---0---0---0---0---0---0---0---0---0---0---0---|
| 5|---------------------------------|-------------------------------|
| 6|---------------------------------|-------------------------------|
|    1   +   2   +   3   +   4   +   1   +   2   +   3   +   4   + 
|
| 1|---------------------------------|-------------------------------|
| 2|-3---3---3---3---3---3---3---3---3---3---3---3---3---3---3---3---|
| 3|-2---2---2---2---2---2---2---2---2---2---2---2---2---2---2---2---|
| 4|-0---0---0---0---0---0---0---0---0---0---0---0---0---0---0---0---|
| 5|---------------------------------|-------------------------------|
| 6|---------------------------------|-------------------------------|
\    1   +   2   +   3   +   4   +   1   +   2   +   3   +   4   + 


/ 
| 1|---------------------------------|-------------------------------|
| 2|---------------------------------|-------------------------------|
| 3|17--16--19--16--17--16--19--16--17--16--19--16--17--16--19--16---|
| 4|-0---0---0---0---0---0---0---0---0---0---0---0---0---0---0---0---|
| 5|---------------------------------|-------------------------------|
| 6|---------------------------------|-------------------------------|
|    1   +   2   +   3   +   4   +   1   +   2   +   3   +   4   + 
|
| 1|---------------------------------|-------------------------------|
| 2|-3---3---3---3---3---3---3---3---3---3---3---3---3---3---3---3---|
| 3|-2---2---2---2---2---2---2---2---2---2---2---2---2---2---2---2---|
| 4|-0---0---0---0---0---0---0---0---0---0---0---0---0---0---0---0---|
| 5|---------------------------------|-------------------------------|
| 6|---------------------------------|-------------------------------|
\    1   +   2   +   3   +   4   +   1   +   2   +   3   +   4   + 


/    Guitar I
| 1|---------------------------------|-------------------------------|
| 2|---------------------------------|-------------------------------|
| 3|17----\----16------\----14-----\-|--12-----\----11------12-------|
| 4|-0-------------------------------|-------------------------------|
| 5|---------------------------------|-------------------------------|
| 6|---------------------------------|-------------------------------|
|    1   +   2   +   3   +   4   +   1   +   2   +   3   +   4   + 
|
|   Guitar II
| 1|-0-------------------------------0-------------------------------|
| 2|-1-------------------------------3-------------------------------|
| 3|-0-------------------------------0-------------------------------|
| 4|-2-------------------------------0-------------------------------|
| 5|-3---------------------------------------------------------------| 
| 6|-----------------------------------------------------------------|
\    1   +   2   +   3   +   4   +   1   +   2   +   3   +   4   + 

/ 
| 1|---------------------------------|-------------------------------|
| 2|---------------------------------|-------------------------------|
| 3|11-----\-----7-----\-----2-------|-----------------------/-(17)--|
| 4|-0-----------------------0-------|-------------------------------|
| 5|---------------------------------|-------------------------------|
| 6|---------------------------------|-------------------------------|
|    1   +   2   +   3   +   4   +   1   +   2   +   3   +   4   + 
|
| 1|-------------0-------------------|-------------------------------|
| 2|-------------------------3-------|-------------------------------|
| 3|-2-------------------------------|---2---------------------------|
| 4|---------------------------------|-------------------------------|
| 5|---------------------------------|-------------------------------|
| 6|---------------------------------|-------------------------------|
\    1   +   2   +   3   +   4   +   1   +   2   +   3   +   4   + 


/    Guitar I
| 1|---------------------------------|-------------------------------|
| 2|---------------------------------|-------------------------------|
| 3|17----\----16------\----14-----\-|--12-----\----11------12-------|
| 4|-0-------------------------------|-------------------------------|
| 5|---------------------------------|-------------------------------|
| 6|---------------------------------|-------------------------------|
|    1   +   2   +   3   +   4   +   1   +   2   +   3   +   4   + 
|
|   Guitar II
| 1|-0-------------------------------0-------------------------------|
| 2|-1-------------------------------3-------------------------------|
| 3|-0-------------------------------0-------------------------------|
| 4|-2-------------------------------0-------------------------------|
| 5|-3---------------------------------------------------------------| 
| 6|-----------------------------------------------------------------|
\    1   +   2   +   3   +   4   +   1   +   2   +   3   +   4   + 


/ 
| 1|---------------------------------|-------------------------------|
| 2|---------------------------------|-------------------------------|
| 3|11-----\-----7-----\-----2-------|-----------------------/-(17)--|
| 4|-0-----------------------0-------|-------------------------------|
| 5|---------------------------------|-------------------------------|
| 6|---------------------------------|-------------------------------|
|    1   +   2   +   3   +   4   +   1   +   2   +   3   +   4   + 
|
| 1|-------------0-------------------|-------------------------------|
| 2|-------------------------3-------|-------------------------------|
| 3|-2-------------------------------|---2---------------------------|
| 4|---------------------------------|-------------------------------|
| 5|---------------------------------|-------------------------------|
| 6|---------------------------------|-------------------------------|
\    1   +   2   +   3   +   4   +   1   +   2   +   3   +   4   + 


   Guitar I
1|---------------------------------|-------------------------------|
2|-3-------------------------------|-------------------------------|
3|-2-------------------------------|---4---------------5-----------|
4|-0-------------------------------0---------------0---------------|
5|---------------------------------|-------------------------------|
6|---------------------------------|-------------------------------|
   1   +   2   +   3   +   4   +   1   +   2   +   3   +   4   + 

       (Guitar II : feedback . . . . . . . . . . . . . . . . . . . 
1|---------------------------------|-------------------------------|
2|---------------------------------|-------------------------------|
3|-----7---------------------------|-------------------------------|
4|-0-------------------------------|-------------------------------|
5|---------------------------------|-------------------------------|
6|---------------------------------|-------------------------------|
   1   +   2   +   3   +   4   +   1   +   2   +   3   +   4   + 

   . . . . . . . . . . . . . . . . . . . . . . . . . . . . . . . . 
1|---------------------------------|-------------------------------|
2|-3-------------------------------|-------------------------------|
3|-2-------------------------------|---4---------------5-----------|
4|-0-------------------------------0---------------0---------------|
5|---------------------------------|-------------------------------|
6|---------------------------------|-------------------------------|
   1   +   2   +   3   +   4   +   1   +   2   +   3   +   4   + 

   . . . . . . . . . . . . . . . . . . . . . . . . . . . . . . . . 
1|---------------------------------|-------------------------------|
2|---------------------------------|-------------------------------|
3|-----7---------------------------|-------------------------------|
4|-0-------------------------------|-------------------------------|
5|---------------------------------|-------------------------------|
6|---------------------------------|-------------------------------|
   1   +   2   +   3   +   4   +   1   +   2   +   3   +   4   + 

   . . . . . . . . . . . . . . . . . . . . . . . . . . . fade out)
1|---------------------------------|-------------------------------|
2|---------------------------------|-------------------------------|
3|---------------------------------|-------------------------------|
4|---------------------------------|-------------------------------|
5|---------------------------------|-------------------------------|
6|---------------------------------|-------------------------------|
   1   +   2   +   3   +   4   +   1   +   2   +   3   +   4   + 

1|---------------------------------|-------------------------------|
2|---------------------------------|-------------------------------|
3|---------------------------------|-------------------------------|
4|---------------------------------|-------------------------------|
5|---------------------------------|-------------------------------|
6|---------------------------------|-------------------------------|
   1   +   2   +   3   +   4   +   1   +   2   +   3   +   4   + 
  And
1|---------------------------------|-------------------------------|
2|---------------------------------|-------------------------------|
3|---------------------------------|-------------------------------|
4|---------------------------------|-------------------------------|
5|---------------------------------|-------------------------------|
6|---------------------------------|-------------------------------|
   1   +   2   +   3   +   4   +   1   +   2   +   3   +   4   + 
                          and      I_________ can't____  stop
   w/delay
1|-x---x---x---x---x---x---x---x---x---x---x---x---x---x---x---x---|
2|-x---x---x---x---x---x---x---x---x---x---x---x---x---x---x---x---|
3|---------------------------------|-------------------------------|
4|---------------------------------|-------------------------------|
5|---------------------------------|-------------------------------|
6|---------------------------------|-------------------------------|
   1   +   2   +   3   +   4   +   1   +   2   +   3   +   4   + 

1|-x---x---x---x---x---x---x---x---x---x---x---x---x---x---x---x---|
2|-x---x---x---x---x---x---x---x---x---x---x---x---x---x---x---x---|
3|---------------------------------|-------------------------------|
4|---------------------------------|-------------------------------|
5|---------------------------------|-------------------------------|
6|---------------------------------|-------------------------------|
   1   +   2   +   3   +   4   +   1   +   2   +   3   +   4   + 

1|-x---x---x---x---x---x---x---x---x---x---x---x---x---x---x---x---|
2|-x---x---x---x---x---x---x---x---x---x---x---x---x---x---x---x---|
3|---------------------------------|-------------------------------|
4|---------------------------------|-------------------------------|
5|---------------------------------|-------------------------------|
6|---------------------------------|-------------------------------|
   1   +   2   +   3   +   4   +   1   +   2   +   3   +   4   + 

              (play & stop the notes)
1|-x---x---x--15-------------------x---x---x--14-------------------|
2|-x---x---x----------15-----------x---x---x----------13-----------|
3|---------------------------------|-------------------------------|
4|---------------------------------|-------------------------------|
5|---------------------------------|-------------------------------|
6|---------------------------------|-------------------------------|
   1   +   2   +   3   +   4   +   1   +   2   +   3   +   4   + 

1|-x---x---x--15-------------------x---x---x--14-------------------|
2|-x---x---x----------15-----------x---x---x----------13-----------|
3|---------------------------------|-------------------------------|
4|---------------------------------|-------------------------------|
5|---------------------------------|-------------------------------|
6|---------------------------------|-------------------------------|
   1   +   2   +   3   +   4   +   1   +   2   +   3   +   4   + 

1|-x---x---x--15-------------------x---x---x--14-------------------|
2|-x---x---x----------15-----------x---x---x----------13-----------|
3|---------------------------------|-------------------------------|
4|---------------------------------|-------------------------------|
5|---------------------------------|-------------------------------|
6|---------------------------------|-------------------------------|
   1   +   2   +   3   +   4   +   1   +   2   +   3   +   4   + 

1|-x---x---x--15-------------------x---x---x--14-------------------|
2|-x---x---x----------15-----------x---x---x----------13-----------|
3|---------------------------------|-------------------------------|
4|---------------------------------|-------------------------------|
5|---------------------------------|-------------------------------|
6|---------------------------------|-------------------------------|
   1   +   2   +   3   +   4   +   1   +   2   +   3   +   4   + 

1|15------------------------------14-------------------------------|
2|------------15-------------------|----------13-------------------|
3|---------------------------------|-------------------------------|
4|---------------------------------|-------------------------------|
5|---------------------------------|-------------------------------|
6|---------------------------------|-------------------------------|
   1   +   2   +   3   +   4   +   1   +   2   +   3   +   4   + 

1|15------------------------------14-------------------------------|
2|------------15-------------------|----------13-------------------|
3|---------------------------------|-------------------------------|
4|---------------------------------|-------------------------------|
5|---------------------------------|-------------------------------|
6|---------------------------------|-------------------------------|
   1   +   2   +   3   +   4   +   1   +   2   +   3   +   4   + 

1|15--------------14--------------15--------------14---------------|
2|--------15--------------13-------|------15--------------13-------|
3|---------------------------------|-------------------------------|
4|---------------------------------|-------------------------------|
5|---------------------------------|-------------------------------|
6|---------------------------------|-------------------------------|
   1   +   2   +   3   +   4   +   1   +   2   +   3   +   4   + 

1|15--15--15--15--15--15--15--15--15--15--15--15--15--15--15-------|
2|13--13--13--13--13--13--13--13--13--13--13--13--13--13--13-------|
3|---------------------------------|-------------------------------|
4|---------------------------------|-------------------------------|
5|---------------------------------|-------------------------------|
6|---------------------------------|-------------------------------|
   1   +   2   +   3   +   4   +   1   +   2   +   3   +   4   + 
                                                       If you
CHORUS :
 
   W/o delay
  Let ring . . . . . . . . . . . . . . . . . . . . . . . . . . . . 
1|-0-------------------------------0-------------------------------|
2|-1-------------------------------0-------------------------------|
3|*0-----------------------0-------0-------------------------------|
4|*2-----------------------2-------0-------------------------------|
5|-3-----------------------3-------2-------------------------------|
6|---------------------------------3-------------------------------|
   1   +   2   +   3   +   4   +   1   +   2   +   3   +   4   + 
  Don't_________________ know_____________________       e   - 

   ________________________________________________________________
  / 1,2,3,4,5                                                 to * |
   . . . . . . . . . . . . . . . . . . . . . . . . . . . . . . . .
1|-------------0-------------------|-------------------------------|
2|-------------------------3-------|-------------------------------|
3|---------------------------------|---2---------------------------| 
4|-0-------------------------------|-------------------------------|
5|---------------------------------|-------------------------------|
6|---------------------------------|-------------------------------|
   1   +   2   +   3   +   4   +   1   +   2   +   3   +   4   + 
- le   -   c  -  tric     Co.______________________    If you

   ________________________________________________________________
  / 6
   . . . . . . . . . . . . . . . . . . . . . . . . . . . . . . . .
1|-------------0-------------------|-------------------------------|
2|---------------------------------|-------------------------------|
3|---------------------------------|-------------------------------|
4|-0-----------------------0-------|-------------------------------|
5|---------------------------------|-------------------------------|
6|---------------------------------|-------------------------------|
   1   +   2   +   3   +   4   +   1   +   2   +   3   +   4   + 
- le   -   c  -  tric     Co.______________________________________ 

  Guitar I
  P.M. . . . . . . . . . . . . . . . . . . . . . . . . . . . . . . 
1|---------------------------------|-------------------------------|
2|---------------------------------|-------------------------------|
3|-2---2-2-----5---5-5-----4---4-4-|---9---9-9----11-------7-------|
4|-0-0-0-0-0-0-0-0-0-0-0-0-0-0-0-0-0-0-0-0-0-0-0-0-0-0-0-0-0-0-0-0-|
5|---------------------------------|-------------------------------|
6|---------------------------------|-------------------------------|
   1   +   2   +   3   +   4   +   1   +   2   +   3   +   4   + 

   . . . . . . . . . . . . . . . . . . . . . . . . . . . . . . . .
1|---------------------------------|-------------------------------|
2|---------------------------------|-------------------------------|
3|-2---2-2-----5---5-5-----4---4-4-|--12----12----14------11-------|
4|-0-0-0-0-0-0-0-0-0-0-0-0-0-0-0-0-0-0-0-0-0-0-0-0-0-0-0-0-0-0-0-0-|
5|---------------------------------|-------------------------------|
6|---------------------------------|-------------------------------|
   1   +   2   +   3   +   4   +   1   +   2   +   3   +   4   + 

   . . . . . . . . . . . . . . . . . . . . . . . . . . . . . . . .
1|---------------------------------|-------------------------------|
2|---------------------------------|-------------------------------|
3|-2---2-2-----5---5-5-----4---4-4-|---9---9-9----11-------7-------|
4|-0-0-0-0-0-0-0-0-0-0-0-0-0-0-0-0-0-0-0-0-0-0-0-0-0-0-0-0-0-0-0-0-|
5|---------------------------------|-------------------------------|
6|---------------------------------|-------------------------------|
   1   +   2   +   3   +   4   +   1   +   2   +   3   +   4   + 

   . . . . . . . . . . . . 
1|---------------------------------|---------------------------3---|
2|---------------------------------|---------------------------3---|
3|-2---2-2-----5---5-5-----4-------|---------------------------0---|
4|-0-0-0-0-0-0-0-0-0-0-0-0-0-------|---------------------------0---|
5|---------------------------------|-------------------------------|
6|---------------------------------|-------------------------------|
   1   +   2   +   3   +   4   +   1   +   2   +   3   +   4   + 

OUTRO :

1|-2-------------------------------|---------------2-------2-------|
2|-3-------------------------------|---------------3-------3-------|
3|-2-------------------------------|---------------2-------2-------|
4|-0-------------------------------|---------------0---------------|
5|---------------------------------|-------------------------------|
6|---------------------------------|-------------------------------|
   1   +   2   +   3   +   4   +   1   +   2   +   3   +   4   + 

1|-3-----------3-----------3-------|---3-----------7-------5-------|
2|-3-----------3-----------3-------|---3-----------7-------7-------|
3|-2-------------------------------|---------------7-------7-------|
4|-0-------------------------------|---------------0---------------|
5|---------------------------------|-------------------------------|
6|---------------------------------|-------------------------------|
   1   +   2   +   3   +   4   +   1   +   2   +   3   +   4   + 

1|-2-------------------------------|---2-----------2-------2-------|
2|-3-------------------------------|---3-----------3-------3-------|
3|-2-------------------------------|---2-----------2-------2-------|
4|-0-------------------------------|---------------0---------------|
5|---------------------------------|-------------------------------|
6|---------------------------------|-------------------------------|
   1   +   2   +   3   +   4   +   1   +   2   +   3   +   4   + 

1|-3-----------3-----------3-------|---3-----------7-------5-------|
2|-3-----------3-----------3-------|---3-----------7-------7-------|
3|-2-------------------------------|---------------7-------7-------|
4|-0-------------------------------|---------------0---------------|
5|---------------------------------|-------------------------------|
6|---------------------------------|-------------------------------|
   1   +   2   +   3   +   4   +   1   +   2   +   3   +   4   + 

1|-2-------------------------------|---2-----------2-------2-------|
2|-3-----------3-------------------|---3-----------3-------3-------|
3|-2-----------2-----------2-------|---2-----------2-------2-------|
4|-0-----------------------0-------|---------------0---------------|
5|---------------------------------|-------------------------------|
6|---------------------------------|-------------------------------|
   1   +   2   +   3   +   4   +   1   +   2   +   3   +   4   + 

                                                repeat and fade out
1|-3-----------------------3-------|---3-----------7-------5-------|
2|-3-----------3-----------3-------|---3-----------7-------7-------|
3|-2-----------2-----------2-------|---------------7-------7-------|
4|-0-----------------------0-------|---------------0---------------|
5|---------------------------------|-------------------------------|
6|---------------------------------|-------------------------------|
   1   +   2   +   3   +   4   +   1   +   2   +   3   +   4   +
  development and support by
dmitry ivanov