rock
 
|tablatures   |lyrics   |discussion forums   |more tabs @ XGuitar.com

U2 tabs

The King's New Clothes guitar tab

U2 - King's New Clothes

Tabbed by {gleeman} gleeman@tiscalinet.it



King's New Clothes

Tune down 1/2 step

Main Riff:

E|-9--x-9----9--|----------14-----|-9--x-9----9--|----------14--15-|
B|-10-x-10---10-|-12-12-12-----15-|-10-x-10---10-|-12-12-12--------|
G|-9--x-9----9--|-----------------|-9--x-9----9--|-----------------|
D|-7--x-7----7--|-----------------|-7--x-7----7--|-----------------|
A|--------------|-----------------|--------------|-----------------|
E|--------------|-----------------|--------------|-----------------|

Bridge:

                 
E|-10-10------|-7-7-------|-10-10-----|
B|-10-10------|-8-8-------|-10-10-----|
G|-7--7-------|-7-7-------|-9--9------|
D|-7--7-------|-5-5-------|-7--7------|
A|------------|-----------|-----------|
E|------------|-----------|-----------|

Solo:

E|------------|
B|------------|
G|---ehm...---|
D|------------|
A|------------|
E|------------|
  development and support by
dmitry ivanov