rock
 
|tablatures   |lyrics   |discussion forums   |more tabs @ XGuitar.com

U2 tabs

The Star Spangled Banner guitar tab

The Star Spangled Banner - Hendrix
----------------------------------

I thought I'd send this transcription I found into 
the archive for a bit of fun, even though only a small 
part appears on Rattle and Hum. I'm in the process of 
tabbing some U2 songs for the archive though I'm having 
trouble with the live version of 'One' inc. 'Knocking on 
your door...' bit. If you have it send it to the archive.

Cheers, 

jules.


Author/Artist: Jimi Hendrix
Title: The Star Spangled Banner
Album: Woodstock
Transcribed by: Mustang

3/4 time *note most fdbk=F# *

 w/Fuzzface dist. & Univibe effects

                               fdbk                  fdbk
                               pitch F#              pitch F#    ~~~
fdbk
-----|-|----------|--0------|--0----2/4--2--|--0------------|---------------|--
-0---|-|-------0--|-(0)-----|-(0)-----------|---------------|---------------|--
---1-|-|----1-----|---------|---------------|-----1--(1)-3/-|-4--4---3/4-(4)|--
-----|-|-2--------|---------|---------------|---------------|---------------|--
-----|-|----------|---------|---------------|---------------|---------------|--
-----|-|----------|---------|---------------|---------------|---------------|--
                                                                        
     
full----|
 up   down               ~~~~                                ~~~
~~
-----------------------|----------------|--0----0----------|----------|-------
-7b----7------5h-7p-5--|-4----4\2---4---|----------0-------|------0---|-------
-7b--------------------|----------------|-------------0h1--|--------1-|---1---
-----------------------|----------------|------------------|-2--------|-2-----
-----------------------|----------------|------------------|----------|-------
-----------------------|----------------|------------------|----------|-------
                                                                        
     
     fdbk                   tr~~~~~~~tr~~~~
---|(0)------|--0--2/-4-----4/--5--\-2-4---|--0-------------|-----------------
-0-|(0)------|--0--------------------------|----------------|-----------------
---|---------|-----------------------------|----1/-3\-1/-3\-|--4---7-6--------
---|---------|-----------------------------|----------------|-----------------
---|---------|-----------------------------|----------------|-----------------
---|---------|-----------------------------|----------------|-----------------
                                                                        
     
        1/2      1/2                            fdbk 
---------------------|--------------------------------------------------|-----
---------------------|--------------------------------------------------|-----
-6/-8---8b--(8)-(8)--|-6h-8p--6h-8p-6\-4h-6p--4-(4)--0-----4----4-------|-----
---------------------|--------------------------------------------------|-----
---------------------|--------------------------------------------------|-----
---------------------|--------------------------------------------------|-----
                                                                        
     
full  grad. release                 1/2--*
---------|------------|--------------------------------|---------------|-0-0--
-7b------|(7)----(7)--|--5---5h-7--(7)-(7)p---5h-7p-5\-|-4------4/-2-4-|------
---------|------------|--------------------------------|---------------|------
---------|------------|--------------------------------|---------------|------
---------|------------|--------------------------------|---------------|------
---------|------------|--------------------------------|---------------|------
                                                                        
     
   ~~~                  wah on                              full grad.
release
-----------2/-4--4--4--(4)---5--|--7---7-------------7-|------------------|---
-0------------------------------|----------------------|---/17b--(17)-----|---
---1----------------------------|----------------------|------------------|---
-----2--------------------------|----------------------|------------------|---
--------------------------------|----------------------|------------------|---
--------------------------------|---------0----0-------|------------------|---
                                                                        
     
trem bar
 2 1/2        1 1/2  2        free time
-----------------------------|-------/17-17-17---17-17-17--17----17-17-17-17--
-0---------x---0-------0-----|--0----/18-18-18---18-18-18--18----18-18-18-18--
-0---------x---0-------0-----|--0----/19-19-19---19-19-19--19----19-19-19-19--
-0---------x---0-------0-----|--0---------------------------------------------
-----------------------------|------------------------------------------------
-----------------------------|------------------------------------------------
                                                                        
     
                                              harm
                                              trem bar
----17-17-17-17-------------------------------------------------------0---x/--
----18-18-18-18-------------------------------------------0-----------0---x/--
----19-19-19-19-------------------------------3-----------0---4/-15---0---x/--
-0--------------------------------------------3-------------------------------
----------------------------------------------3-------------------------------
-----------------15-15-15-15-0\-----h15\------0-------------------------------
                                                                        
     
trem bar
1 1/2    \1/\1/\1/
                  fdbk   1 1/2            
------------------------------------------------------------------------------
-15----15---------------15b---------------------------------------------------
------------------------------------------------------------------------------
--------------------------------------------------------0-------------0-------
------------------(0)-----------------------------------0-------------0-------
---------------------------------10/-12--16\p--0/-19p---0----h7/-16p--0-------
                
                                                              
                                                         1 1/2
                                                           2
                                                            2 1/2
                                         full                grad.
release                
---------------------------------------------------------------------x--------
----------------------------------------------------------15---------x-17b----
--------------------------------------------------------x--------0---x--------
-----------0-------------0------------x---13bp--0-----x----------0------------
-----------0-------------0------------x-------------x-------------------------
-h7/-16p---0---h7/-19p---0----h7/-13--x---------------------------------------
        
                              
                                       Microphonic
                 
                              Harm       fdbk
                                          chock string w/fret hand
                                              thumb fdbk  
                                                          Harm--| Fdbk
trem 1
----------------------13------13----------x----------------------------------x--
-2p-0-----------------13------13----------x----------------12----(12)---(12)----
-3p-0------------0----13------13----------x-------------------12----------------
-4p-0-------x\---0---------12------x------x-------------------------------------
-4p-0-------x\---0-----------------x------x-------------------------------------
-------0----x\---------------------12-----x---11-11-11-12-----------------------

trem bar up
               
1/2  1 1/2
           trem bar dn
            1 2 1/2             in time           free time
--------------------4/-5------4|--2----4---5|--5-|----------------------------
-------------------------------|------------|----|----------------h8p--0-h8p--
-------------------------------|------------|----|----------------h8p--0-h8p--
-------------------------------|------------|----|-/8----h8--h7---h8p--0-h8p--
-/14b-------0------------------|------------|----|----h7-----h7---------------
-/14b-------0------------------|------------|----|----------------------------
                                                                        
     
                trem bar dives 2 1/2  3  3  5  3  3  2 1/2  3   1 1/2
3
-------------------------------------------------------|----------------------
-0-h8p--0-h8p------------------------------------------|----------------------
-0-h8p--0-h8p--0-----0---------------------------------|-0--------------------
-0-h8p--0-h8p--0-----0---------------------------------|-0--------------------
-------------------------------------------------------|----------------------
-------------------------------------------------------|----------------------
                                                                        
     
1 1/2  2 1/2                   2  1            press dn trem bar
------------------------------0------------------------------------------|----
------------------------------0-------/13---------h13-----h13-----h13----|----
-0-----------------0/--18---------------------h12-----h12-----h12------0/|----
-0-----------------0/--18------------------------------------------------|----
-------------------------------------------------------------------------|----
-------------------------------------------------------------------------|----
                                                                        
     
          trem bar(very wide vib) hammer on pull offs
------------------------------------------------------------------------------
------------------------------------------------------------------------------
-/13-----h13p-0-13-0-13-0-13-0-13-0-13-0-13-0-13-0-13-0-13-0-13-0-13-0-13-0---
-----h12----------------------------------------------------------------------
------------------------------------------------------------------------------
------------------------------------------------------------------------------
                                                                        
     
                                                    trem bar
                                                    dn 2
fdbk C#
-----------------------------------------------------------0------------------
-----------------------------------------------------------0--------0-(0)-----
-13-0-13-0-13-0-13-0-13-0-13-0-13-0-13-0-13-0-13-0---0-----0---/13p-0---------
-----------------------------------------------------0-----0------------------
-----------------------------------------------------------0---------------0--
-----------------------------------------------------------0---------------0--

                                                                        
     
                              unvibe creates
                              impression of
  trem bar 1/2 1 1/2 2        reattack
-----------0------------------------------------------------------------------
------h17p-0-----------0--0-----------------------------------0---------------
--0--------------------0--0-----------------------------------0---------------
--0--------------------0--0-------------------------------15p-0-----h16p-0----
-----------------------0--0-----------------h16p-0-h16p-0-----------h16p-0----
------------------------------h16p-0-h16p-0-------------------------h16p-0----
      

                                                                        
                                 1 1/2 w/fdbk       (vib.& hold bend)
                                 decend simul-       up2
                                 taneously           up1  fdbk----|
full 2
-----------------------0--/17-------------------0-----------------------------
-----------------------0---------17b----17------0---16b-----------------17b---
--------------------------------------------0-------16b---16---16\----0-------
-h16p-0-h16p-0-h16p-x---------------------------------------------------------
-h16p-0-h16p-0-h16p-x---------------------------------------------------------
-h16p-0-h16p-0-h16p-x---------------------------------------------------------
                                                                        
     

                                     in time
slower
-------------------------------4/-5-|--4\--2-h4p-2p-0-|-------------|---------
-------0----------------------------|-----------------|-4------2--4-|-5-------
-------0-------------0--------------|-----------------|-------------|---1/-3--
-x\----0------h11p---0--------------|-----------------|-------------|---------
-x\----0----------------------------|-----------------|-------------|---------
-x\---------------------------------|-----------------|-------------|---------
                
                   Univibe
               
        fdbk---|   & wah off                            ~~~~~
~~~~
------------------------------------|-12-----------12|--16-------12|-16-------
----------------------------/12--12-|-----------12---|--------12---|------12--
-3/-4---(4)--(4)--(4)---------------|----------------|-------------|----------
------------------------------------|----------------|-------------|----------
------------------------------------|----------------|-------------|----------
------------------------------------|----------------|-------------|----------
                                       
                                                   *rock wah back &
forth quickly,creating rhythmic 
                                   wah on          effect on sixteenth
note (triplets)*
    ~~~~~~          ~~~~~~         wah off         wah on
  
----16----------12|-16------|-0----0-------0---0|-------------0--2|--4-5---4--
-12----------12---|--------0|------------------4|--2--2--2--4-----|-----------
------------------|---------|-------------------|-----------------|-----------
------------------|---------|-------------------|-----------------|-----------
------------------|---------|-------------------|-----------------|-----------
------------------|---------|-------------------|-----------------|-----------
     
                                                                        
                    1/2   wah off
                                trem bar
                                          trem bar
                                                    fdbk
--2--h4p--2|--0--------------|--------|----------|----------------------------
-----------|--------4b----4--|--4-----|---4------|--4-------------------------
-----------|-----------------|--------|----------|----------------------------
-----------|-----------------|--------|----------|----------------------------
-----------|-----------------|--------|----------|----------------------------
-----------|-----------------|--------|----------|----------------------------
                                                                        
     


play with trem bar
here----------------------------------------------------|
             *fret b silently & allow
             it to fdbk
                                   fdbk F# 
---------|-----------------------------------------------------------------|--
---------|---4--------------------(0)--------------------------------------|--
---------|--(4)--------(4)-----------(4)--(4)------------------------------|--
---------|-----------------------------------------------------------------|--
---------|-----------------------------------------------------------------|--
---------|-----------------------------------------------------------------|--


                                                                        
     
 trem 2 2 2 2       don't pick
                             wah on
fdbk
-----------------------------------|--0-----2--2/-4--5|-7----7------|-(7)-----
--------------------x--------0----0|--------------0---|-------------|---------
-(4)-------(4)------x--------------|------------------|-------------|---------
------------x-------x--------------|------------------|-------------|---------
------------x----------------------|------------------|-------------|---------
-----------------------------------|------------------|-------------|---------
                                                                        
     

trem bar
dive                                                       ~~~~~~~~~~~~
 fdbk B
-0-----0---2/|--4------h5p-4-h5p-4\--2---h4p-2-h4p-2-------0|-(0)--(0)----0---
-0-----------|----------------------------------------------|-----------------
-0-----------|----------------------------------------------|-----------------
-0-----------|----------------------------------------------|-----------------
-0-----------|----------------------------------------------|-----------------
-------------|----------------------------------------------|-----------------
                                                                        
     
            
                                                   fdbk G#
                                                         fdbk F#
                                                    ~~~   ~~~
---|-----5-------|--/8-------10---------|--0-------(0)--------|-|-------------
---|-----5-------|--/8-------10---------|--0-------------(0)--|-|-------------
-x\|-----6-------|--/9-------11---------|---------------------|-|-------------
-x\|-----7-------|--/10------12---------|--2------------------|-|---8----8----
-x\|-------------|----------------------|--2------------------|-|-------
-x\|-----5-------|--/8-------10-----10\-|--0------------------|-|-6----6
         T           T       T
                          








 "The Star Spangled Banner" (instrumental performed by Jimi Hendrix)
  ------------------------
tabbed by: Sergio Lucero, slucero@cipres.cec.uchile.cl



        This can be performed quite easily by playing
          the following structure over an E chord:

E----------0--|-4-2-0--------|-----4--2-0---|-----0-0-------|
B-0------0----|-----------0--|-0-0--------4-|-2-4-----0-----|
G---1--1------|-------1-3----|--------------|-----------1---|
D----2--------|--------------|--------------|-------------2-|
A-------------|--------------|--------------|---------------|
E-------------|--------------|--------------|---------------|
  development and support by
dmitry ivanov