rock
 
|tablatures   |lyrics   |discussion forums   |more tabs @ XGuitar.com

U2 tabs

The Wanderer bass tab

U2 "The wanderer" - Bass tab
 ----------------------------
 
 Part 1.
 G|----------------------------------------------
 D|-5--5-5-----5--5-5-----5--5-5-----5--5-5------ Repeat a couple of times
 A|--------7-5--------7-5--------7-5--------7-5--
 E|----------------------------------------------

 Part 2.                        Sometimes it changes for this: 
 G|-------------------------    G|-5--5-5-----5--5-5------
 D|-------------------------    D|--------7-5--------7-5--     Then back to part 1.
 A|-3--3-3------3--3-3------    A|------------------------     
 E|--------5-3---------5-3--    E|------------------------

 then
 Part 3.
 G|-----------------------------------------------------------------
 D|-----------------------5--5-5---5-------------------------------- then back to Part 1.
 A|-7--7-7---5-3--3-3---3--------7---5--5-5---5-7--7-7---5-3-3-5-5--
 E|--------7----------5---------------------5----------7------------

 During the guitar solo it passes directly from Part 1. to Part 3.
 Then follow the parts 1. 2. 1. 3. structure and fade out.

 Tabbed by Roberto Cruz
 zurc@sprint.ca
======================================================================

U2 "The wanderer" -BASS TAB
---------------------------
Tune down 1/2 step eb ab db gb
Another dead easy song!  Simple but effective

Main riff:
|-----------------------------|     
|---------------10-10-10-7----|     
|-10-10-10-7---------------10-|             
|------------10---------------|              

Chorus:
|-------------|---------------|---------------|-------------------------|
|----------10-|-10-10-10-7----|---------------|-------------------------|
|-7-7-7-10----|------------10-|-10-10-10-7----|-------------------------|
|-------------|---------------|------------10-|-10-10-10-10-10-10-10-10-|



 h = hammeron
 p = pulloff
 ~ = vibrato
 / = slide up
 \ = slide down
(X)= hold note (let ring)

Tabbed by Mark Linwood

Hint suggesstions or comments to (Rlinwood@powerup.com.au)
I will reply to all emails
  development and support by
dmitry ivanov