rock
 
|tablatures   |lyrics   |discussion forums   |more tabs @ XGuitar.com

U2 tabs

Things To Make And Do guitar tab

Things To Make And Do
				  u2

Regular Tuning

				Riff A

|---------------|-----------------|---------------|---------------|
|--6--7--9--7---|--6--------6-9-6-|--6--7--9--7---|--6---------6--|
|---6--6--6--6--|---6-8-6-8-------|---6--6--6--6--|---6-8-6-8-----|
|---------------|-----------------|---------------|---------------|
|---------------|-----------------|---------------|---------------|
|---------------|-----------------|---------------|---------------|

			



				Riff B

|--------|--------|--------|--------|--------|--------|--------|--------|
|--9--9--|-6--7---|--9--9--|-6------|--9--9--|-6--7---|--9--9--|-6------|
|--6--6--|--6--6--|--6--6--|--6---6-|--6--6--|--6--6--|--6--6--|--6-8-6-|
|--------|--------|--------|----8---|--------|--------|--------|--------|
|--------|--------|--------|--------|--------|--------|--------|--------|
|--------|--------|--------|--------|--------|--------|--------|--------|

					       x4
|--------|--------|--------|--------|----8-------|
|--9--9--|-6--7---|--9--9--|-6------|--6---9--8--|
|--6--6--|--6--6--|--6--6--|--6---6-|*----------*|	
|--------|--------|--------|----8---|*----------*|
|--------|--------|--------|--------|------------|
|--------|--------|--------|--------|------------|



				
				Riff C

|--------|--11-11-11-11--|--14--13--|--------|--16-16-16-18--|--14--16--|
|--9--9--|--11-11-11-11--|--14--13--|--9--9--|--16-16-16-18--|--14--16--|
|--6--6--|---------------|----------|--6--6--|---------------|----------|
|--------|---------------|----------|--------|---------------|----------|
|--------|---------------|----------|--------|---------------|----------|
|--------|---------------|----------|--------|---------------|----------|


|--------|--14-14-14-13-13-13--|--11-11-11-9-9-9--|--------|--16-16-16-16--|
|--9--9--|--14-14-14-13-13-13--|--11-11-11-9-9-9--|--9--9--|--16-16-16-16--|
|--6--6--|---------------------|------------------|--6--6--|---------------|
|--------|---------------------|------------------|--------|---------------|
|--------|---------------------|------------------|--------|---------------|
|--------|---------------------|------------------|--------|---------------|


|--18--14--|
|--18--14--|
|----------|
|----------|
|----------|
|----------|



PLAY RIFF B

PLAY RIFF A

PLAY RIFF B

PLAY RIFF C (small variation)


End on....

	    x16
|--------------|
|--9--9--9--9--|
|*-6--6--6--6-*|
|*------------*|
|--------------|
|--------------|


		TRANSCRIBED BY: PETER SCHENK(wiglaf@falcon.cc.ukans.edu)
  development and support by
dmitry ivanov