rock
 
|tablatures   |lyrics   |discussion forums   |more tabs @ XGuitar.com

U2 tabs

Touch guitar tab

=====
Touch
=====

Transcribed by Richard Averill.
E-mail me at nigelolympus@tinet.ie.

-----
Intro
-----

     pm................................................................
  1|---------------------------------|---------------------------------|
  2|-5-----------5-----------5-------|-----3-----------3---3---3-------|
1 3|-4-----------4-----------4-------|-----4-----------4---4---4-------|
  4|-2---2---2---2---2---2---2---0---|-0---0---0---0---0---0---0---0---|
  5|---------------------------------|---------------------------------|
  6|---------------------------------|---------------------------------|
     1   +   2   +   3   +   4   +     1   +   2   +   3   +   4   +

     pm................................................................
  1|---------------------------------|---------------------------------|
  2|-5-----------5-----------5-------|-----3-----------3---3---3-------|
1 3|-4-----------4-----------4-------|-----4-----------4---4---4-------|
  4|-2---2---2---2---2---2---2---0---|-0---0---0---0---0---0---0---0---|
  5|---------------------------------|---------------------------------|
  6|---------------------------------|---------------------------------|
   | 1   +   2   +   3   +   4   +     1   +   2   +   3   +   4   +
   |
  1|---------------------------------|---------------------------------|
  2|---------------------------------|---------------------------------|
2 3|---------------------------------|---------------------------------|
  4|----------------<12>-------------|<12>------------<12>-------------|
  5|------------------------<12>-----|--------<12>---------------------|
  6|---------------------------------|---------------------------------|
     1   +   2   +   3   +   4   +     1   +   2   +   3   +   4   +

    Riff 1...                                             ...End Riff 1
  1|---------------------------------|-------------2-------2---2---0---|
  2|-5-----------5-------5---5---5---|-------------5-------5---5---0---|
1 3|-4---x---x---4-------4---4---4---|-x---x---x---4-------4---4-------|
  4|-2---x---x---2-------2---2---0---|-x---x---x-----------------------|
  5|---------------------------------|---------------------------------|
  6|---------------------------------|---------------------------------|
     1   +   2   +   3   +   4   +     1   +   2   +   3   +   4   +

-----
Verse
-----

Play Riff 1 four times.

----------
Pre-Chorus
----------

                    D
 ...I don't want to know, I just want to go.

------
Chorus
------

     G                                 Bm/F#
  1|---------------------------------|---------------------------------|
  2|-------------0-------------------|-------------0-------------------|
2 3|-----7---------------------------|-----7---------------------------|
  4|-5-------------------------------|-4-------------------------------|
  5|---------------------------------|---------------------------------|
  6|---------------------------------|---------------------------------|
     1   +   2   +   3   +   4   +     1   +   2   +   3   +   4   +

     A
  1|-------------0-------------------|--------<12>---------------------|
  2|---------------------0-----------|----------------<12>-------------|
2 3|-----9---------------------------|---------------------------------|
  4|-7-------------------------------|---------------------------------|
  5|---------------------------------|---------------------------------|
  6|---------------------------------|---------------------------------|
     1   +   2   +   3   +   4   +     1   +   2   +   3   +   4   +

------
Ending
------

   G                 Bm/F#             A
1|-----------------|-----------------|-----------------|-----------------|
2|-8-------8-------|-7-------7-------|-10------10------|-10------10------|
3|-----7-------7---|-----7-------7---|-----7-------7---|-----7-------7---|
4|-----------------|-----------------|-----------------|-----------------|
5|-----------------|-----------------|-----------------|-----------------|
6|-----------------|-----------------|-----------------|-----------------|
   1   2   3   4     1   2   3   4     1   2   3   4     1   2   3   4



-----------------------------------------------------------------------



TOUCH
				  u2

Regular Tuning
		
		   Falling...	  I don't...      I just want to..	
		x4	       x12
|-0--0-0--0--0-0--|--0---0-0-0----|---------------|---------------|
|-0--0-0--0--0-0--|--0---0-0-0----|--3------------|--3------------|
|*4--4-4--4--4-4-*|*-4-x-4-4-4-x-*|--0------------|--0------------|
|*2--2-2--2--2-2-*|*-2-x-2-2-2-x-*|---------------|---------------|
|-----------------|---------------|---------------|---------------|
|-----------------|---------------|---------------|---------------|
			Riff A 			Riff B

Play Riff A

Play Riff B


CHORUS			(n.h.)
			      x4
|--------------0-0----|--12-----|
|---3-0--3-0-------0--|----12---|
|*-0----0-----0-------|--------*|
|*--------------------|--------*|
|---------------------|---------|
|---------------------|---------|


Play Riff A

Play Riff B

CHORUS

Play Riff A

CHORUS


  La la la....
	
|--3---3---5---3---5---5---5---5-|-----------|--3---3---5---3---5---5---5---5-|
|3---3---3---3---3---3---3---3---|-----3-----|3---3---3---3---3---3---3---3---|
|--------------------------------|-----0-----|--------------------------------|
|--------------------------------|-----------|--------------------------------|
|--------------------------------|-----------|--------------------------------|
|--------------------------------|-----------|--------------------------------|


|----0----|
|----0----|
|----4----|
|----2----|
|---------|
|---------|


		TRANSCRIPTION BY: PETER SCHENK(wiglaf@falcon.cc.ukans.edu)
  development and support by
dmitry ivanov