rock
 
|tablatures   |lyrics   |discussion forums   |more tabs @ XGuitar.com

U2 tabs

Twilight bass tab

#---------------------------------PLEASE NOTE---------------------------------#
#This file is the author's own work and represents their interpretation of the#
#song. You may only use this file for private study, scholarship, or research.#
#-----------------------------------------------------------------------------#

Song: Twilight
Artist: U2
Album: Boy
Tabbed by: Jase Warner (trip_through_your_wires@hotmail.com)

Standard Tuning (E,A,D,G) Down Half A Step

Intro:

G|----------------------------------------------------------------------|
D|*-14------14/-----------------------10--------10/---------------------|
A|*-------------------5-------5/---------------------------2---------2/-|
E|----------------------------------------------------------------------|

G|----------------------------------------------------------------------|
D|*-------------------12------12/--------------------------------------*|
A|*-7-------7/------------------------3--------3/------14--14-14-14-14/*|
E|----------------------------------------------------------------------|

Second Lick:

G|----------------------------------------------------------------------|
D|*--------------------------------------------------------------------*|
A|*--7--#-7#--7-7-7---5--#-5#--5-5-5---3--#-3#--3-3-3---2--#-2#--2-2/--*|
E|----------------------------------------------------------------------|

Third Lick:

G|----------------------------------------------------------------------|
D|*--------9-------9--------7-------7--------5-------5-----------------*|
A|*--7--7----7--7-----5--5----5--5-----3--3----3--3-----2---2-2-2-2-2/-*|
E|----------------------------------------------------------------------|

Verse:

G|------------9-----9----------7-----7----------5-----5-----------------|
D|*--------------------------------------------------------------------*|
A|*--7#--7#-----7-----5#--5#------5-----3#--3#-----3-----2#--2#--2--2/-*|
E|----------------------------------------------------------------------|

G|------------9-----9----------7-----7----------5-----5-----------------|
D|*--------------------------------------------------------------------*|
A|*--7#--7#-----7-----5#--5#------5-----3#--3#-----3-----2#--2#--2--2/-*|
E|----------------------------------------------------------------------|

Bridge:

G|----------------------------------------------------------------------|
D|*--------9-------9--------7-------7--------5-------5-----------------*|
A|*--7--7----7--7-----5--5----5--5-----3--3----3--3-----2---2-2-2-2-2/-*|
E|----------------------------------------------------------------------|

Verse:

G|------------9-----9----------7-----7----------5-----5-----------------|
D|*--------------------------------------------------------------------*|
A|*--7#--7#-----7-----5#--5#------5-----3#--3#-----3-----2#--2#--2--2/-*|
E|----------------------------------------------------------------------|

G|------------9-----9----------7-----7----------5-----5-----------------|
D|*--------------------------------------------------------------------*|
A|*--7#--7#-----7-----5#--5#------5-----3#--3#-----3-----2#--2#--2--2/-*|
E|----------------------------------------------------------------------|

Bridge:

G|----------------------------------------------------------------------|
D|*--------9-------9--------7-------7--------5-------5-----------------*|
A|*--7--7----7--7-----5--5----5--5-----3--3----3--3-----2---2-2-2-2-2/-*|
E|----------------------------------------------------------------------|

Chorus:

G|----------------------------------------------------------------------|
D|*---------------------------------------------------------------------|
A|*7-7-7-7-7-7-7-7--5-5-5-5-5-5-5-5-5--3-3-3-3-3-3-3-3--2-2-2-2-2-2-2-2-|
E|----------------------------------------------------------------------|

G|----------------------------------------------------------------------|
D|---------------------------------------------------------------------*|
A|-7-7-7-7-7-7-7-7--5-5-5-5-5-5-5-5-5--3-3-3-3-3-3-3-3--2-2-2-2-2-2-2-2*|
E|----------------------------------------------------------------------|

Bridge:

G|-------------------------------------|
D|*-----------------------------------*|
A|*-----------------------------------*|
E|-0-2-3--0-2-3--0-2-3--0-2-3--0-2-3-0-|

Out Of Bridge:

G|----------------------------------|-----------------------------------|
D|*---------------------------------|----------------------------------*|
A|*---------------------------------|----------------------------------*|
E|-5---------#-3------5---------#-3-|-5---------#-3------5---------#-3--|

Out Of Chorus:

G|----------------------------------------------------------------------|
D|*---------------------------------------------------------------------|
A|*-7-7-7-7-7-7-7-7--7-7-7-7-7-7-7-7--7-7-7-7-7-7-7-7--7-7-7-7-7-7-7-7--|
E|----------------------------------------------------------------------|

G|------------------------------------|
D|*----------------------------------*|
A|*-7-7-7-7-7-7-7-7--7-7-7-7-7-7-7-7-*|
E|------------------------------------|

Then:

G|----------------------------------------------------------------------|
D|*--------------------------------------------------------------------*|
A|*7-7-7-7-7-7-7-7--5-5-5-5-5-5-5-5-5--3-3-3-3-3-3-3-3--2-2-2-2-2-2-2-2*|
E|----------------------------------------------------------------------|

G|----------------------------------------------------------------------|
D|*--------9-------9--------7-------7--------5-------5-----------------*|
A|*--7--7----7--7-----5--5----5--5-----3--3----3--3-----2---2-2-2-2-2/-*|
E|----------------------------------------------------------------------|

Verse:

G|----------------------------------------------------------------------|
D|*--------------------------------------------------------------------*|
A|*7-7-7-7-7-7-7-7--5-5-5-5-5-5-5-5-5--3-3-3-3-3-3-3-3--2-2-2-2-2-2-2-2*|
E|----------------------------------------------------------------------|

G|----------------------------------------------------------------------|
D|*--------------------------------------------------------------------*|
A|*7-7-7-7-7-7-7-7--5-5-5-5-5-5-5-5-5--3-3-3-3-3-3-3-3--2-2-2-2-2-2-2-2*|
E|----------------------------------------------------------------------|

Bridge:

G|------------------------------------------------------|
D|*----------------------------------------------------*|
A|*2-2-2-2-2-2-2-2--2-2-2-2-2-2-2-2-2--2-2-2-2-2-2-2-2-*|
E|------------------------------------------------------|

Chorus:

G|----------------------------------------------------------------------|
D|*--------------------------------------------------------------------*|
A|*7-7-7-7-7-7-7-7--5-5-5-5-5-5-5-5-5--3-3-3-3-3-3-3-3--2-2-2-2-2-2-2-2*|
E|----------------------------------------------------------------------|

G|----------------------------------------------------------------------|
D|*--------------------------------------------------------------------*|
A|*7-7-7-7-7-7-7-7--5-5-5-5-5-5-5-5-5--3-3-3-3-3-3-3-3--2-2-2-2-2-2-2-2*|
E|----------------------------------------------------------------------|

G|----------------------------------------------------------------------|
D|*--9-7-----9-7------7-5-----7-5--------5-3-----5-3-------------------*|
A|*7-----9-7-----9--5-----7-5-----7-5--3-----5-3-----3--2-2-2-2-2-2-2-2*|
E|----------------------------------------------------------------------|

G|----------------------------------------------------------------------|
D|*--9-7-----9-7------7-5-----7-5--------5-3-----5-3-------------------*|
A|*7-----9-7-----9--5-----7-5-----7-5--3-----5-3-----3--2-2-2-2-2-2-2-2*|
E|----------------------------------------------------------------------|

Guitar Solo:

G|----------------------------------------------------------------------|
D|*--------------------------------------------------------------------*|
A|*7-7-7-7-7-7-7-7--5-5-5-5-5-5-5-5-5--3-3-3-3-3-3-3-3--2-2-2-2-2-2-2-2*|
E|----------------------------------------------------------------------|

G|----------------------------------------------------------------------|
D|*--------------------------------------------------------------------*|
A|*7-7-7-7-7-7-7-7--5-5-5-5-5-5-5-5-5--3-3-3-3-3-3-3-3--2-2-2-2-2-2-2-2*|
E|----------------------------------------------------------------------|

G|----------------------------------------------------------------------|
D|*--------9-------9--------7-------7--------5-------5-----------------*|
A|*--7--7----7--7-----5--5----5--5-----3--3----3--3-----2---2-2-2-2-2/-*|
E|----------------------------------------------------------------------|

G|----------------------------------------------------------------------|
D|*--------9-------9--------7-------7--------5-------5-----------------*|
A|*--7--7----7--7-----5--5----5--5-----3--3----3--3-----2---2-2-2-2-2/-*|
E|----------------------------------------------------------------------|

Chorus:

G|----------------------------------------------------------------------|
D|*--------------------------------------------------------------------*|
A|*7-7-7-7-7-7-7-7--5-5-5-5-5-5-5-5-5--3-3-3-3-3-3-3-3--2-2-2-2-2-2-2-2*|
E|----------------------------------------------------------------------|

G|------------------------------------------------------------------------------|
D|*----------------------------------------------------------------------------*|
A|*7-7-7-7-7-7-7-7--5-5-5-5-5-5-5-5-5--3-3-3-3-3-3-3-3-/14-14-14-14-14-14-14-14*|
E|------------------------------------------------------------------------------|

Bridge:

G|-------------------------------------|
D|*-----------------------------------*|
A|*-----------------------------------*|
E|-0-2-3--0-2-3--0-2-3--0-2-3--0-2-3-0-|

Out Of Bridge:

G|----------------------------------|-----------------------------------|
D|*---------------------------------|----------------------------------*|
A|*---------------------------------|----------------------------------*|
E|-5---------#-3------5---------#-3-|-5---------#-3------5---------#-3--|

Outro:

G|----------------------------------------------------------------------|
D|*---------------------------------------------------------------------|
A|*-7-7-7-7-7-7-7-7--7-7-7-7-7-7-7-7--7-7-7-7-7-7-7-7--7-7-7-7-7-7-7-7--|
E|----------------------------------------------------------------------|

G|----------------------------------------------------------------------|
D|*---------------------------------------------------------------------|
A|*-7-7-7-7-7-7-7-7--7-7-7-7-7-7-7-7--7-7-7-7-7-7-7-7--7-7-7-7-7-7-7-7--|
E|----------------------------------------------------------------------|

G|----------------------------------------------------------------------|
D|*---------------------------------------------------------------------|
A|*-7-7-7-7-7-7-7-7--7-7-7-7-7-7-7-7--7-7-7-7-7-7-7-7--7-7-7-7-7-7-7-7--|
E|----------------------------------------------------------------------|

G|----------------------|
D|*--------------------*|
A|*-7-7-7-7-7-7-7-7--7-*|
E|----------------------|

Ok, that's about it.  Realised that there weren't many tabs from the earlier U2 albums, so look forward to some more from Boy, War & October :) any suggestions welcome.  Hope you enjoy it!
  development and support by
dmitry ivanov