rock
 
|tablatures   |lyrics   |discussion forums   |more tabs @ XGuitar.com

U2 tabs

Twilight guitar tab

========
Twilight
========

Transcribed by Richard Averill. 
If you have any corrections, complements or whatever,
e-mail me at: nigelolympus@tinet.ie

-----
Notes
-----

There are actually two guitars on the CD, but I have arranged
the song so it is playable on one.

Tune all the strings on your guitar down a semitone.
Set up a bright, clear tone with a bit of reverb.

The tempo is 142 beats per minute.

BAR      PART
---      ----
1-19     Intro.
20-27    Verse 1.
28-31    Bridge.
32-39    Verse 2.
40-43    Bridge.
44-61    1st Chorus.
62-86    Bridge.
87-102   2nd Chorus.
103-118  Solo.
119-136  3rd Chorus.
137-144  Ending.

-----
Intro
-----

Mute the 2nd and 3rd strings but let notes on the 1st string ring.

   pm...       pm...       pm...       pm...       pm...       pm...
1|---------0-----------5-----------0-------|---5-----------0-----------5---|
2|-----3---|-------3-----------3-----------3-----------3-----------3-------|
3|-4-------|---4-----------4-----------4---|-------4-----------4-----------|
4|---------|-------------------------------|-------------------------------|
5|---------|-------------------------------|-------------------------------|
6|---------|-------------------------------|-------------------------------|

   4   +   1   +   2   +   3   +   4   +   1   +   2   +   3   +   4   +
   ________________________________________________________________
  / x5
 / pm...       pm...       pm...       pm...       pm...       pm
1|---------0-----------5-----------0-----------5-----------0-------|
2|-----3-----------3-----------3---|-------3-----------3-----------|
3|-4-----------4-----------4-------|---4-----------4-----------4---|
4|---------------------------------|-------------------------------|
5|---------------------------------|-------------------------------|
6|---------------------------------|-------------------------------|
   1   +   2   +   3   +   4   +   1   +   2   +   3   +   4   +

  _______________________________
                                 \
   pm      pm...       pm...      \
1|-----5-----------0-----------5---|
2|-3-----------3-----------3-------|
3|---------4-----------4-----------|
4|---------------------------------|
5|---------------------------------|
6|---------------------------------|
   1   +   2   +   3   +   4   +

1|---------0-----------5-------0---|-------5-----------0-----------|
2|-----3-----------3-----------0---|-------0-----------0-----------|
3|-4-----------4-----------4-------|-------------------------------|
4|---------------------------------|-------------------------------|
5|---------------------------------|-------------------------------|
6|---------------------------------|-------------------------------|
   1   +   2   +   3   +   4   +   1   +   2   +   3   +   4   +

-------
Verse 1
-------

  (0:34)

               pm...............               pm................
1|---------------------------------|-------------------------------|
2|-0---8---------------------------0---10--------------------------|
3|-0---9-------9-------9---9---9---0---11------11------11--11--11--|
4|---------------------------------|-------------------------------|
5|---------------------------------|-------------------------------|
6|---------------------------------|-------------------------------|
   1   +   2   +   3   +   4   +   1   +   2   +   3   +   4   +

               pm...............
1|-0---7---------------------------0-----------12------------------|
2|-0---8-------8-------8---8---8---0---10--------------10----------|
3|---------------------------------|-----------------------9-------|
4|---------------------------------|-------------------------------|
5|---------------------------------|-------------------------------|
6|---------------------------------|-------------------------------|
   1   +   2   +   3   +   4   +   1   +   2   +   3   +   4   +

               pm...............               pm................
1|---------------------------------|-------------------------------|
2|-0---8---------------------------0---10--------------------------|
3|-0---9-------9-------9---9---9---0---11------11------11--11--11--|
4|---------------------------------|-------------------------------|
5|---------------------------------|-------------------------------|
6|---------------------------------|-------------------------------|
   1   +   2   +   3   +   4   +   1   +   2   +   3   +   4   +

               pm...............
1|-0---7---------------------------0---8-------0---10------\-------|
2|-0---8-------8-------8---8---8---0---10------0---12------\-------|
3|---------------------------------|-------------------------------|
4|---------------------------------|-------------------------------|
5|---------------------------------|-------------------------------|
6|---------------------------------|-------------------------------|
   1   +   2   +   3   +   4   +   1   +   2   +   3   +   4   +

------
Bridge
------

  (0:47)

   pm...       pm...       pm...       pm...       pm...       pm
1|---------0-----------5-----------0-----------5-----------0-------|
2|-----3-----------3-----------3---|-------3-----------3-----------|
3|-4-----------4-----------4-------|---4-----------4-----------4---|
4|---------------------------------|-------------------------------|
5|---------------------------------|-------------------------------|
6|---------------------------------|-------------------------------|
   1   +   2   +   3   +   4   +   1   +   2   +   3   +   4   +

   pm      pm...       pm...
1|-----5-----------0-----------5---|-------0-----------------------|
2|-3-----------3-----------3---0---|-------0-----------------------|
3|---------4-----------4-----------|-------------------------------|
4|---------------------------------|-------------------------------|
5|---------------------------------|-------------------------------|
6|---------------------------------|-------------------------------|
   1   +   2   +   3   +   4   +   1   +   2   +   3   +   4   +

-------
Verse 2
-------

Same guitar as Verse 1.

------
Bridge
------

Repeat first Bridge.

----------
1st Chorus
----------

  (1:14)
   ________________________________________________________________
  / x2
1|-0-------0-------0---0---0---2---|---0-------0-------0---0---0---|
2|-5-------5-------5---5---5---3---|---3-------3-------3---3---3/--|
3|-4-------4-------4---4---4---2---|---2-------2-------2---2---2/--|
4|---------------------------------|-------------------------------|
5|---------------------------------|-------------------------------|
6|---------------------------------|-------------------------------|
   1   +   2   +   3   +   4   +   1   +   2   +   3   +   4   +
  ________________________________________________________________
                                                                  \
1|-0-------0-------0---0---0---0---|---0---0-------0---0---0---0---|
2|-13------13------13--13--13--12--|---12--12------12--12--12--12\-|
3|-12------12------12--12--12--11--|---11--11------11--11--11--11\-|
4|---------------------------------|-------------------------------|
5|---------------------------------|-------------------------------|
6|---------------------------------|-------------------------------|
   1   +   2   +   3   +   4   +   1   +   2   +   3   +   4   +

  (1:28)

   pm.......................................................
1|---------------------------------|-------------------------------|
2|---------------------------------|-------------------------------|
3|---------------------------------|-------------------------------|
4|---------------------------------|-------------------------------|
5|---------------------------------|-------------------------------|
6|-0---2---3---0---2---3---0---2---3---0---2---3---0---2---3-------|
   1   +   2   +   3   +   4   +   1   +   2   +   3   +   4   +

   _______________________________________________________________
  / x4                                                            \
1|-0-------------------------------0-------------------------------|
2|-2-------------------------------0-------------------------------|
3|-2-------------------------------0-------------------------------|
4|-2-------------------------------2-------------------------------|
5|-0-------------------------------2-------------------------------|
6|---------------------------------0-------------------------------|
   1   +   2   +   3   +   4   +   1   +   2   +   3   +   4   +

------
Bridge
------

There are four bars without any guitar, followed by this:

  (1:52)

1|---------------------------------|-------------------------------|
2|-x---x---x---x---------------x---x---x---x---x---x---x---x---x---|
3|-x---x---x---x---------------x---x---x---x---x---x---x---x---x---|
4|-x---x---x---x---------------x---x---x---x---x---x---x---x---x---|
5|---------------------------------|-------------------------------|
6|---------------------------------|-------------------------------|
   1   +   2   +   3   +   4   +   1   +   2   +   3   +   4   +

                                           pm...................
1|---------------------------------7---5---5---5---5---5---5---5---|
2|-8---x---0---8---x---x---x---x---8---7---7---7---7---7---7---7---|
3|-9---x---0---9---x---x---x---x---|-------------------------------|
4|---------------------------------|-------------------------------|
5|---------------------------------|-------------------------------|
6|---------------------------------|-------------------------------|
   1   +   2   +   3   +   4   +   1   +   2   +   3   +   4   +

           pm...................
1|-0---7---7---7---7---7---7---7---0---8---0---10------0---0---0---|
2|-0---8---8---8---8---8---8---8---0---10--0---12------0---0---0---|
3|---------------------------------|-------------------------------|
4|---------------------------------|-------------------------------|
5|---------------------------------|-------------------------------|
6|---------------------------------|-------------------------------|
   1   +   2   +   3   +   4   +   1   +   2   +   3   +   4   +

  (2:02)

1|---------------------------------|-------------------------------|
2|-0---0---8---0---0---8---0---0---10--0---0---10--0---0--10---0---|
3|-0---0---9---0---0---9---0---0---11--0---0---11--0---0--11---0---|
4|---------------------------------|-------------------------------|
5|---------------------------------|-------------------------------|
6|---------------------------------|-------------------------------|
   1   +   2   +   3   +   4   +   1   +   2   +   3   +   4   +

1|---------------------------------|-------------------------------|
2|-12--12--12--12--12--12--12--12--13--13--0---15------15--0-------|
3|-12--12--12--12--12--12--12--12--14--14--0---16------16--0-------|
4|---------------------------------|-------------------------------|
5|---------------------------------|-------------------------------|
6|---------------------------------|-------------------------------|
   1   +   2   +   3   +   4   +   1   +   2   +   3   +   4   +

 (2:09)

1|-7-----------7\------------------7-----------7\------------------|
2|-8-----------8\------------------8-----------8\------------------|
3|-7-----------7\------------------7-----------7\------------------|
4|---------------------------------|-------------------------------|
5|---------------------------------|-------------------------------|
6|---------------------------------|-------------------------------|
   1   +   2   +   3   +   4   +   1   +   2   +   3   +   4   +

1|-5-----------5\------------------4-----------4\------------------|
2|-6-----------6\------------------5-----------5\------------------|
3|-5-----------5\------------------4-----------4\------------------|
4|---------------------------------|-------------------------------|
5|---------------------------------|-------------------------------|
6|---------------------------------|-------------------------------|
   1   +   2   +   3   +   4   +   1   +   2   +   3   +   4   +

1|-7-----------7\------------------7-----------7\------------------|
2|-8-----------8\------------------8-----------8\------------------|
3|-7-----------7\------------------7-----------7\------------------|
4|---------------------------------|-------------------------------|
5|---------------------------------|-------------------------------|
6|---------------------------------|-------------------------------|
   1   +   2   +   3   +   4   +   1   +   2   +   3   +   4   +

1|-5-----------5\------------------|---0---------------------------|
2|-6-----------6\------------------|---------------4---------------|
3|-5-----------5\------------------|-----------4-------4-----------|
4|---------------------------------|-------------------------------|
5|---------------------------------2---------------------------2---|
6|---------------------------------|-------------------------------|
   1   +   2   +   3   +   4   +   1   +   2   +   3   +   4   +

1|---------------------------------|---0---0---0---0---0---0---0---|
2|-4---4-----------4---4-----------4---4---4---4---4---4---4---4---|
3|-4---4-----------4---4-----------4---4---4---4---4---4---4---4---|
4|---------------------------------|-------------------------------|
5|-------------2---------------2---|-------------------------------|
6|---------------------------------|-------------------------------|
   1   +   2   +   3   +   4   +   1   +   2   +   3   +   4   +

1|-0---0---0---0---0---0---0---0---|
2|-4---4---4---4---4---4---4---4---|
3|-4---4---4---4---4---4---4---4---|
4|---------------------------------|
5|---------------------------------|
6|---------------------------------|
   1   +   2   +   3   +   4   +

----------
2nd Chorus
----------

  (2:27)
   ________________________________________________________________
  / x4
1|-0-------0-------0---0---0---2---|---0-------0-------0---0---0---|
2|-5-------5-------5---5---5---3---|---3-------3-------3---3---3/--|
3|-4-------4-------4---4---4---2---|---2-------2-------2---2---2/--|
4|---------------------------------|-------------------------------|
5|---------------------------------|-------------------------------|
6|---------------------------------|-------------------------------|
   1   +   2   +   3   +   4   +   1   +   2   +   3   +   4   +
  ________________________________________________________________
                                                                  \
1|-0---0---0---0---0---0---0---0---0---0---0---0---0---0---0---0---|
2|-13--13--13--13--13--13--13--12--12--12--12--12--12--12--12--12\-|
3|-12--12--12--12--12--12--12--11--11--11--11--11--11--11--11--11\-|
4|---------------------------------|-------------------------------|
5|---------------------------------|-------------------------------|
6|---------------------------------|-------------------------------|
   1   +   2   +   3   +   4   +   1   +   2   +   3   +   4   +

----
Solo
----

  (2:54)

   With slide......................................................
1|---------------------------------|-------23-\21--23-\21----------|
2|---------------------------------|-------------------------------|
3|---------------------------------|-------------------------------|
4|---------------------------------|-------------------------------|
5|---------------------------------|-------------------------------|
6|-23-\21--23-\21--23-\21--23-\21--23-\21------------------23-\21--|
   1   +   2   +   3   +   4   +   1   +   2   +   3   +   4   +

  .................................................................
1|---------------------------------|-----------------------23-\21--|
2|---------------------------------|-------------------------------|
3|---------------------------------|-------------------------------|
4|---------------------------------|-------------------------------|
5|---------------------------------|-------------------------------|
6|-23-\21--23-\21--23-\21--23-\21--23-\21--23-\21--23-\21----------|
   1   +   2   +   3   +   4   +   1   +   2   +   3   +   4   +

  .................................................................
1|---------------------------------|-------------------------------|
2|---------------------------------|-------------------------------|
3|---------------------------------|-------------------------------|
4|---------------------------------|-------------------------------|
5|---------------------------------|-------------------------------|
6|-23-\21--23-\21--23-\21--23-\21--23-\21--23-\21--23-\21--23-\21--|
   1   +   2   +   3   +   4   +   1   +   2   +   3   +   4   +

                                                          (3:07)
  ..................................................
1|---------------------------------|-----------------------0---0---|
2|---------------------------------|-------------------------------|
3|---------------------------------|-------------------------------|
4|---------------------------------|-------------------------------|
5|-20.5\19-20.5\19-21-\19--21-\19--22.5~~~-----21~~~---------------|
6|---------------------------------|-------------------------------|
   1   +   2   +   3   +   4   +   1   +   2   +   3   +   4   +

1|-15--0---0---12--0---0---17--0---0---15--0---19--0---15--0---17--|
2|---------------------------------|-------------------------------|
3|---------------------------------|-------------------------------|
4|---------------------------------|-------------------------------|
5|---------------------------------|-------------------------------|
6|---------------------------------|-------------------------------|
   1   +   2   +   3   +   4   +   1   +   2   +   3   +   4   +

1|-0---14--0---12------0---0---0---9---0---0---7---0---15--0---0---|
2|---------------------------------|-------------------------------|
3|---------------------------------|-------------------------------|
4|---------------------------------|-------------------------------|
5|---------------------------------|-------------------------------|
6|---------------------------------|-------------------------------|
   1   +   2   +   3   +   4   +   1   +   2   +   3   +   4   +

1|-15--0---0---12--------------0---17--0-------17--0---19--0-------|
2|---------------------15-/17------|-------17------------------17--|
3|---------------------------------|-------------------------------|
4|---------------------------------|-------------------------------|
5|---------------------------------|-------------------------------|
6|---------------------------------|-------------------------------|
   1   +   2   +   3   +   4   +   1   +   2   +   3   +   4   +

1|-19--19------20--20--20--20--21b-|-21b---21b---21b---21b---21b---|
2|---------------------------------|-------------------------------|
3|---------------------------------|-------------------------------|
4|---------------------------------|-------------------------------|
5|---------------------------------|-------------------------------|
6|---------------------------------|-------------------------------|
   1   +   2   +   3   +   4   +   1   +   2   +   3   +   4   +

----------
3rd Chorus
----------

Repeat the 1st Chorus.

------
Ending
------

There are six bars with no guitar, then this:

  (4:02)
                                   pm...       pm...       pm...
1|---------------------------------|-------0-----------5-----------|
2|---------------------------------|---3-----------3-----------3---|
3|-------------9---9---9\----------4-----------4-----------4-------|
4|---------------------------------|-------------------------------|
5|---------------------------------|-------------------------------|
6|---------------------------------|-------------------------------|
   1   +   2   +   3   +   4   +   1   +   2   +   3   +   4   +

       pm...       pm...       pm...       pm...       pm...
1|-0-----------5-----------0-------|---5-----------0-----------5---|
2|---------3-----------3-----------3-----------3-----------3-------|
3|-----4-----------4-----------4---|-------4-----------4-----------|
4|---------------------------------|-------------------------------|
5|---------------------------------|-------------------------------|
6|---------------------------------|-------------------------------|
   1   +   2   +   3   +   4   +   1   +   2   +   3   +   4   +

   pm...       pm...       pm...
1|---------0-----------5-----------0-----------5-----------0-------|
2|-----3-----------3-----------3---3-----------3-----------3-------|
3|-4-----------4-----------4-------|-------------------------------|
4|---------------------------------|-------------------------------|
5|---------------------------------|-------------------------------|
6|---------------------------------|-------------------------------|
   1   +   2   +   3   +   4   +   1   +   2   +   3   +   4   +

1|-----5-----------0-------5-------|-------------------------------||
2|-----3-----------3-------3------<12>-----------------------------||
3|--------------------------------<12>-----------------------------||
4|--------------------------------<12>-----------------------------||
5|---------------------------------|-------------------------------||
6|---------------------------------|-------------------------------||
   1   +   2   +   3   +   4   +   1   +   2   +   3   +   4   +





				TWILIGHT
				   u2

tUne dOwn 1/2 sTep
				vErse
		x24             i lOok iNto hIs eYes...   n.H.(nAtural hArmonics)
|-------0-------5--|--0--5--0--|--0--3--0--5--0--7--0--5-|--12----|
|---0-3-----0-3----|--0--0-----|--0-----0-----0-----0----|----12--|
|*----------------*|-----------|-------------------------|--------|
|*----------------*|-----------|-------------------------|--------|
|------------------|-----------|-------------------------|--------|
|------------------|-----------|-------------------------|--------|



|--0--3--0--5--0--7--0--8--8--10--|
|--0-----0-----0-----0------------|
|---------------------------------|
|---------------------------------|    aFter vErse pLay iNtro aGain, tHen
|---------------------------------|    vErse aGain
|---------------------------------|


cHorus 

 tWilight....

|---0---|---2---|---3---|---2---|--------------|--------------|
|---0---|---0---|---0---|---0---|--------------|--------------|
|*--0---|---2---|---4---|---2--*|*------------*|--------------|
|*------|-------|-------|------*|*------------*|--------------|
|-------|-------|-------|-------|--------------|--------------|
|-------|-------|-------|-------|--0-2-3-0-2-3-|--0-2-3-0-2-3-|


iN tHe sHadows, bOy mEets mAn

|------0------|-------3------|
|------2------|-------3------|
|*-----2------|-------0-----*|   tHis sOng iSn't cOmpletely lAid
|*-----2------|-------0-----*|   oUt iN pErfect oRder aNd sOlo 
|------0------|-------2------|   iS mIssing...bUt tHis iS tHe
|-------------|-------3------|   bAsic sOng...cHeck bAck lAter 
				 aNd tHe sOlo mIght bE hEre tOo.



    TRANSCRIPTION BY: STEVE FORD AND PETER SHENK 


TWILIGHT (SOLO)
---------------
U2

tabbed by jules153@hotmail.com

I was watching a concert video the other day and it looked
like edge played the solo like this.

Tune down half step

E--------------------------------------------------
B--------------------------------------------------
G--8b(10)--8b(10)--8b(10)--8b(10)------------------
D--------------------------------------------------
A--------------------------------------------------
E--------------------------------------------------

                          (pinch harm.)
E--------------------------------------------------
B--------------------------------------------------
G--8b(10)--8b(10)--8b(10)--<8>b(10)----------------
D--------------------------------------------------
A--------------------------------------------------
E--------------------------------------------------

repeat

E--------------------------------------------------
B--------------------------------------------------
G--10b(12)--10b(12)--10b(12)--10b(12)--12b--12b----
D--------------------------------------------------
A--------------------------------------------------
E--------------------------------------------------
  development and support by
dmitry ivanov