rock
 
|tablatures   |lyrics   |discussion forums   |more tabs @ XGuitar.com

U2 tabs

Vertigo bass tab

Band:U2
Song:Vertigo

Riff
G|--------------------------------------------------------------------|
D|----------------------------------------------------7-7-7-7-6-5-----|
A|--5h7-7-5h7-7-5-------------------5h7-7-5h7-7-5---------------------|
E|----------------0---5-5-5-5-4-3-----------------0-------------------|

Chorus
G|--------------------------------------------------------------------|
D|--------------------------------------------------------------------|
A|--7-7-7-7-7-7-7-7---5-5-5-5-5-5-5-----------------------------------|
E|----------------------------------3-3-3-3-3-3-3-3---5-5-5-5-5-5-5---|

Bridge1
G|--------------------------------------------------------------------|
D|--7-7-7-7-7-7-7-7-7-7-7-7-7-7-7-7-7-7-7-7-7-7-7-7-7-7-7-7-7-7-7-7---|
A|--------------------------------------------------------------------|
E|--------------------------------------------------------------------| X2

Bridge2
G|--------------------------------------------------------------------|
D|--------------------------------------------------------------------|
A|--5-----7-7-----5---7-7-5-7-------5-----7-7-----5---7-7-5-----------|
E|----------------------------------------------------------5-3-------|

G|--------------------------------------------------------------------|
D|--------------------------------------------------------------------|
A|--5-----7-7-----5---7-7-5-7-------5-----7-7-----5-------------------|
E|--------------------------------------------------------------------|
  development and support by
dmitry ivanov