rock
 
|tablatures   |lyrics   |discussion forums   |more tabs @ XGuitar.com

U2 tabs

When I Look At The World bass tab

G:----------|----------|----------|----------|
D:----------|----------|----------|----------|_
A:5--5--5--5|----------|5--5--5--5|----------| |
E:----------|5--5--5--5|----------|5--5--5--5| |
                                               |__x3
G:----------|----------|----------|----------| |
D:----------|4--4--4--4|2--2--2--2|2--2--2--2| |
A:5--5--5--5|----------|----------|----------|_|
E:----------|----------|----------|----------|

So I try. . .
G:----------|----------|----------|----------|
D:----------|----------|----------|2--2--2--2|
A:5--5--5--5|4--4--4--4|2--2--2--2|----------|
E:----------|----------|----------|----------|

G:----------|----------|----------|----------|
D:----------|----------|2--2--2--2|2--2--2--2|
A:5--5--5--5|4--4--4--4|----------|----------|
E:----------|----------|----------|----------|

G:----------|----------|----------|----------|
D:----------|----------|----------|----------|  x2_
A:5--5--5--5|----------|5--5--5--5|----------|     |
E:----------|5--5--5--5|----------|5--5--5--5|     |
                                                   |__x3
G:----------|----------|----------|----------|     |
D:----------|4--4--4--4|2--2--2--2|2--2--2--2|     |
A:5--5--5--5|----------|----------|----------|_____|
E:----------|----------|----------|----------|

G:----------|----------|----------|----------|
D:----------|----------|----------|2--2--2--2|
A:5--5--5--5|4--4--4--4|2--2--2--2|----------|
E:----------|----------|----------|----------|

G:----------|----------|----------|----------|
D:----------|----------|2--2--2--2|2--2--2--2|
A:5--5--5--5|4--4--4--4|----------|----------|
E:----------|----------|----------|----------|

G:----------|----------|----------|----------|
D:----------|--/7--7---|----------|----------|
A:---5--5---|----------|7--7--7--7|---5--5---|
E:----------|----------|----------|----------|

G:----------|----------|----------|----------|
D:--/7--7---|----------|----------|----------|
A:----------|7--7--7--7|5--5--5--5|----------|
E:----------|----------|----------|7--7--7--7|

G:----------|----------|----------|----------|
D:----------|7--7--7--7|----------|----------|
A:9--9--9--9|----------|7--7--7--7|7--7--7--7|
E:----------|----------|----------|----------|

G:----------|----------|----------|----------|
D:----------|----------|----------|2--2--2--2|
A:5--5--5--5|4--4--4--4|2--2--2--2|----------|
E:----------|----------|----------|----------|

G:----------|----------|----------|----------|
D:----------|----------|2--2--2--2|2--2--2--2|
A:5--5--5--5|4--4--4--4|----------|----------|
E:----------|----------|----------|----------|

G:----------|----------|----------|----------|
D:----------|----------|----------|----------|  x3
A:5--5--5--5|----------|5--5--5--5|----------|
E:----------|5--5--5--5|----------|5--5--5--5|

G:----------|----------|----------|----------|
D:----------|4--4--4--4|2--2--2--2|2--2--2--2|
A:5--5--5--5|----------|----------|----------|
E:----------|----------|----------|----------|

G:----------|----------|----------|----------|
D:----------|----------|----------|----------|  x2
A:5--5--5--5|----------|5--5--5--5|----------|
E:----------|5--5--5--5|----------|5--5--5--5|

(Outro)
G:----------|----------|----------|----------|
D:----------|----------|----------|----------|
A:4---------|----------|----------|----------|
E:----------|----------|----------|----------|
  development and support by
dmitry ivanov