rock
 
|tablatures   |lyrics   |discussion forums   |more tabs @ XGuitar.com

U2 tabs

Who's Gonna Ride Your Wild Horses bass tab

Artist: U2
Title: Who's gonna ride your wild horses
Album: Achtung Baby
Track: 7 (i think)
Tuning: Standard (e a d g)

bass comes in after the firs refrain (when bono sings ... hey hey shalala ... for the second time)

bass coming in(1 time):

---------------------------------------
-7-0000-0000---------0000-0000---------
-----------3333-3333----------3333-3333
---------------------------------------

refrain(4 times):

----------------------------
----------------------------
-------0-22-02-33-2323-3-232
-33-2-3---------------------

verse(4 times):

-------------------------
----------0-0-0----------
--------2------3323233232
-33-2-3------------------


pre-refrain(1 time):

--------------------------------------
-0000-0000----------0000-0000---------
----------3333-3333----------3333-3333
--------------------------------------

refrain(3 times):

----------------------------
----------------------------
-------0-22-02-33-2323-3-232
-33-2-3---------------------

pre bridge(1 time)

--------------------------
--------------------------
-------0-22-02-33-2323-5-7
-33-2-3-------------------


there are two ways to play the bridge now(of course 1 time):
1. possibility

---------------------------------------------------------------
----------------0----------------------------------------------
-0-------------------0-----------------------------------------
------0----3--------------0----3-----10----8-7-5-3-1---------10

2. possibility (the first one is taken from the song but i like this much more! try it i think it sounds much better!)

----------------7-------------------------------------------------------------------------------------------------------------------------------------------------------
----------------0---------------------------------------------------------------0000-0000-0000-0000--------------------------------------------------0000-0000-0000-0000
-0------------------0000-0000-0000-0000---------------------------------------------------------------------3333-2222-0000----------------------------------------------
------0----3----------------------------0000 0000-0000-0000-3333-3333-3333-3333---------------------------------------------3333-1111-1111-1111-1111--------------------


verse(4 times):

----------------------------
----------------------------
-------0-22-02-33-2323-3-232
-33-2-3---------------------

now to this
(Come on now love ...)

------------------------
-00--0--0---------------
----3--3--3-33-2-3-2-3-2
------------------------

-------------5555-5555
-00--0--0-----------
----3--3------------
--------------------

refrain(repeat till 30 seconds before song ends):

----------------------------
----------------------------
-------0-22-02-33-2323-3-232
-33-2-3---------------------

then 30 seconds before the song ends it goes to this (only one time)

---------------------5555-5555
------------------------------
-------0-22-02-33-23----------
-33-2-3-----------------------


--0000-0000------------------
-----------------------------
----------2222-222-2323-3-232
-----------------------------

then fade out with the refrain riff:

----------------------------
----------------------------
-------0-22-02-33-2323-3-232
-33-2-3---------------------
  development and support by
dmitry ivanov