rock
 
|tablatures   |lyrics   |discussion forums   |more tabs @ XGuitar.com

U2 tabs

Who's Gonna Ride Your Wild Horses guitar chords

U2
Who's Gonna Ride Your Wild Horses
(Achtung Baby)
Hi!
This is a great song by U2.I just picked my guitar up and figured this out.
So here is the full guitar tab of U2.
Enjoy.

Intro&Verse:

E---------------------------------------------------------------------------------------------
B---------------------------------------------------------------------------------------------
G---------------------------------------------------------------------------------------------
D-------------------------------------------------2--2--2--2--2--2--2--2----------------------
A-2--2--2--2--2--2--2--2--2--0--0--0--2--0--2--0--3--3--3--3--3--3--3--3--0--0--0--2--0--2--0-
E-3--3--3--3--3--3--3--3--3--3--3--3--3--3--3--3----------------------------------------------

Pre-Chorus:

E-2--2--2--2--2--2---------------------
B-3--3--3--3--3--3--1--1--1--1--1--1---
G-2--2--2--2--2--2---------------------X2
D-------------------2--2--2--2--2--2---
A-------------------3--3--3--3--3--3---
E--------------------------------------
"Hey Hey Sha la la la"...........

Chorus:

E--3--3--3--3--3--3--2--2--2--2--2--2-----------------------------------------
B--3--3--3--3--3--3--3--3--3--3--3--3--1--1--1--1--1--1--1--1--1--1--1--1-----
G--------------------2--2--2--2--2--2-----------------------------------------X4
D--------------------------------------2--2--2--2--2--2--2--2--2--2--2--2-----
A--2--2--2--2--2--2--------------------3--3--3--3--3--3--3--3--3--3--3--3-----
E--3--3--3--3--3--3-----------------------------------------------------------
"Who's Gonna Ride Your Wild Horses"...........

The Bridge is just the pre-chorus played over again.Hope You enjoyed it.
E-Mail me at Shaun.cook@NTL.com if you have any corrections.
See ya later.

===============================================================================


 "Who's Gonna Ride Your Wild Horses?"
  ----------------------------------
 
tabbed by: Scott Yanoff, yanoff@csd4.csd.uwm.edu


        G                       C
You're dangerous, 'cos you're honest
        G                                       C
You're dangerous, 'cos you don't know what you want
        G                           C
Well you left my heart empty as a vacant lot
     G              C
For any spirit to haunt
     
 D   C         D       C
Hey hey sha la la, hey hey

You're an accident waiting to happen
You're a piece of glass left there on the beach
Well you tell me things I know you're not supposed to
Then you leave me just out of reach
     
Hey hey sha la la, hey hey sha la la la
 
 G           D              C
Who's gonna ride your wild horses?
 G           D              C
Who's gonna drown in your blue sea?
 G           D              C
Who's gonna ride your wild horses?
 G           D              C
Who's gonna fall at the foot of thee?
     
Well you stole it 'cos I needed the cash
And you killed it 'cos I needed revenge
Well you lied to me 'cos I asked you to
Baby...can we still be friends?

Hey hey sha la la, hey hey sha la la la
     
Who's gonna ride your wild horses?
Who's gonna drown in your blue sea?
Who's gonna ride your wild horses?
Who's gonna fall at the foot of thee?
     
Am    Em
The deeper I spin
G                                 D
The hunter will sin ... for your ivory skin
Am
Took a drive in the dirty rain
Em
To a place where the wind calls your name
G
Under the trees the river laughing
D
At you and me...
Am
Hallelujah, heavens white rose
F                     D
The doors you open I just can't close

           G         D              C
Don't you turn around, don't you turn around again
           G         D              C
Don't you turn around your gypsy heart
Don't turn around, don't turn around again
Don't turn around, and don't look back

        C        D
Come on now love, don't you look back
     
Who's gonna ride your wild horses?
Who's gonna drown in your blue sea?
Who's gonna taste your salt water kisses?
Who's gonna take the place of me?
Who's gonna ride your wild horses?
Who could tame the heart of thee?


*correction
e|---------------------|
B|---------------------|  variation 1
G|---------------------|
D|---------------------|
A|-----------000-2222-|
E|3333-3333-----------|

e|----------------------|
B|----------------------|  variation 2
G|----------------------|
D|----------------------|
A|----------------------|
E|3333-333-555-7777---|

Bono plays this during the verses and the last chorus
you would have to listen to the song to get the timming down

Jay Labbe  rogas2hotmail.com


==============================================================

TAB: Whose Going To Ride Your Wild Horses (Temple Bar Edit)
Tabbed by James Krause jrkrause@uswest.net

For about six years I've been playing Wild Horses with this riff.
I believe that the acoustic on the studio version is simply doubling
the bass notes, however this transcription below has a fuller sound.
By fretting with the index, keeping the ring finger on the D string and
letting the pinky pick up the other notes it should be really easy to
master. This really makes a great acoustic version with somebody else
playing the chords. Enjoy!

   G1    D     G2    D     C     D     G2   D
D  5--/--7--/--9--\--7--|--5--/--7--/--9--\--7
A  5--/--5--/-10--\--5--|--3--/--5--/-10--\--5
E  3--/--5--/--7--\--5--|--3--/--5--/--7--\--5

G1:  355xxx
D:   557xxx
G2:  7109xxx
C:   335xxx
  development and support by
dmitry ivanov