rock
 
|tablatures   |lyrics   |discussion forums   |more tabs @ XGuitar.com

U2 tabs

Yahweh bass tab

Song: Yahweh
Artist: U2
Album: How To Dismantle An Atomic Bomb
Tabbed by: Jase Warner (trip_through_your_wires@hotmail.com)

Standard Tuning (E,A,D,G)

Intro:

G|---------|---------|---------|---------|-------------|-------------|-------------|-------------|
D|*--------|---------|---------|---------|-------------|-------------|-------------|------------*|
A|*8-8-8-8-|-8-8-8-8-|-8-8-8-8-|-8-8-8-8-|-10-10-10-10-|-10-10-10-10-|-12-12-12-12-|-12-12-12-12*|
E|---------|---------|---------|---------|-------------|-------------|-------------|-------------|

G|---------|---------|---------|---------|-------------|-------------|-------------|-------------|
D|*--------|---------|---------|---------|-------------|-------------|-------------|------------*|
A|*8-8-8-8-|-8-8-8-8-|-8-8-8-8-|-8-8-8-8-|-10-10-10-10-|-10-10-10-10-|-12-12-12-12-|-12-12-12-12*|
E|---------|---------|---------|---------|-------------|-------------|-------------|-------------|

First Verse:

G|---------|---------|---------|---------|---------|---------|---------|---------|
D|*--------|-0--2\---|-5~--#-5-|---------|-2~--#-2-|---------|-3~--#-3-|--------*|
A|*3~--#-3-|---------|---------|-3--5--\-|---------|-3--5--\-|---------|-3--5--\*|
E|---------|---------|---------|---------|---------|---------|---------|---------|

G|---------|---------|---------|---------|---------|---------|---------|---------|
D|*--------|-0--2\---|-5~--#-5-|---------|-2~--#-2-|---------|-7~--#-7-|--------*|
A|*3~--#-3-|---------|---------|-3--5--\-|---------|-3--5--\-|---------|-5--7--\*|
E|---------|---------|---------|---------|---------|---------|---------|---------|

G|---------|---------|---------|---------|---------|---------|---------|---------|
D|*--------|-0--2\---|-5~--#-5-|---------|-2~--#-2-|---------|-3~--#-3-|--------*|
A|*3~--#-3-|---------|---------|-3--5--\-|---------|-3--5--\-|---------|-3--5--\*|
E|---------|---------|---------|---------|---------|---------|---------|---------|

G|---------|---------|---------|---------|---------|---------|---------|---------|
D|*--------|-0--2\---|-5~--#-5-|---------|-2~--#-2-|---------|-7~--#-7-|--------*|
A|*3~--#-3-|---------|---------|-3--5--\-|---------|-3--5--\-|---------|-5--7--\*|
E|---------|---------|---------|---------|---------|---------|---------|---------|

G|---------|---------|---------|---------|---------|---------|---------|---------|
D|*--------|-0--2\---|-5~--#-5-|---------|-2~--#-2-|---------|-3~--#-3-|--------*|
A|*3~--#-3-|---------|---------|-3--5--\-|---------|-3--5--\-|---------|-3--5--\*|
E|---------|---------|---------|---------|---------|---------|---------|---------|

G|---------|---------|---------|---------|---------|---------|---------|---------|
D|*--------|-0--2\---|-5~--#-5-|---------|-2~--#-2-|---------|-7~--#-7-|--------*|
A|*3~--#-3-|---------|---------|-3--5--\-|---------|-3--5--\-|---------|-5--7--\*|
E|---------|---------|---------|---------|---------|---------|---------|---------|

Chorus:

G|---------|---------|---------|---------|---------|---------|---------|---------|
D|*--------|-0--2\---|-9~--#-9-|---------|-7~--#-7-|---------|-3~--#-3-|--------*|
A|*3~--#-3-|---------|---------|-5--7--\-|---------|-5--7--\-|---------|-3--5--\*|
E|---------|---------|---------|---------|---------|---------|---------|---------|

G|---------|---------|---------|---------|---------|---------|---------|---------|
D|*--------|-0--2\---|-9~--#-9-|---------|-7~--#-7-|---------|-7~--#-7-|--------*|
A|*3~--#-3-|---------|---------|-5--7--\-|---------|-5--7--\-|---------|-5--7--\*|
E|---------|---------|---------|---------|---------|---------|---------|---------|

G|---------|---------|---------|---------|---------|---------|---------|---------|
D|*--------|-0--2\---|-9~--#-9-|---------|-7~--#-7-|---------|-3~--#-3-|--------*|
A|*3~--#-3-|---------|---------|-5--7--\-|---------|-5--7--\-|---------|-3--5--\*|
E|---------|---------|---------|---------|---------|---------|---------|---------|

G|---------|---------|---------|---------|
D|*--------|-0~----\-|-3~------|-2~----0*|
A|*3~--#-3-|---------|---------|--------*|
E|---------|---------|---------|---------|

Second Verse:

G|---------|---------|---------|---------|---------|---------|---------|---------|
D|*--------|-0--2\---|-5~--#-5-|---------|-2~--#-2-|---------|-3~--#-3-|--------*|
A|*3~--#-3-|---------|---------|-3--5--\-|---------|-3--5--\-|---------|-3--5--\*|
E|---------|---------|---------|---------|---------|---------|---------|---------|

G|---------|---------|---------|---------|---------|---------|---------|---------|
D|*--------|-0--2\---|-5~--#-5-|---------|-2~--#-2-|---------|-7~--#-7-|--------*|
A|*3~--#-3-|---------|---------|-3--5--\-|---------|-3--5--\-|---------|-5--7--\*|
E|---------|---------|---------|---------|---------|---------|---------|---------|

G|---------|---------|---------|---------|---------|---------|---------|---------|
D|*--------|-0--2\---|-5~--#-5-|---------|-2~--#-2-|---------|-3~--#-3-|--------*|
A|*3~--#-3-|---------|---------|-3--5--\-|---------|-3--5--\-|---------|-3--5--\*|
E|---------|---------|---------|---------|---------|---------|---------|---------|

G|---------|---------|---------|---------|---------|---------|---------|---------|
D|*--------|-0--2\---|-5~--#-5-|---------|-2~--#-2-|---------|-7~--#-7-|--------*|
A|*3~--#-3-|---------|---------|-3--5--\-|---------|-3--5--\-|---------|-5--7--\*|
E|---------|---------|---------|---------|---------|---------|---------|---------|

Chorus:

G|---------|---------|---------|---------|---------|---------|---------|---------|
D|*--------|-0--2\---|-9~--#-9-|---------|-7~--#-7-|---------|-3~--#-3-|--------*|
A|*3~--#-3-|---------|---------|-5--7--\-|---------|-5--7--\-|---------|-3--5--\*|
E|---------|---------|---------|---------|---------|---------|---------|---------|

G|---------|---------|---------|---------|---------|---------|---------|---------|
D|*--------|-0--2\---|-9~--#-9-|---------|-7~--#-7-|---------|-7~--#-7-|--------*|
A|*3~--#-3-|---------|---------|-5--7--\-|---------|-5--7--\-|---------|-5--7--\*|
E|---------|---------|---------|---------|---------|---------|---------|---------|

G|---------|---------|---------|---------|---------|---------|---------|---------|
D|*--------|-0--2\---|-9~--#-9-|---------|-7~--#-7-|---------|-3~--#-3-|--------*|
A|*3~--#-3-|---------|---------|-5--7--\-|---------|-5--7--\-|---------|-3--5--\*|
E|---------|---------|---------|---------|---------|---------|---------|---------|

G|---------|---------|---------|---------|
D|*--------|-0~----\-|-3~------|-2~----0*|
A|*3~--#-3-|---------|---------|--------*|
E|---------|---------|---------|---------|

Break:

G|---------|---------|---------|---------|---------|---------|---------|---------|
D|*--------|---------|---------|---------|---------|---------|---------|--------*|
A|*0~------|---------|-2~------|---------|---------|---------|-5~------|--------*|
E|---------|---------|---------|---------|-1~------|---------|---------|---------|

G|---------|---------|---------|---------|---------|---------|---------|---------|
D|*--------|---------|---------|---------|---------|---------|---------|--------*|
A|*0~------|---------|-2~------|---------|---------|---------|-5~------|--------*|
E|---------|---------|---------|---------|-1~------|---------|---------|---------|

G|---------|---------|---------|---------|---------|---------|---------|---------|
D|*--------|---------|---------|---------|---------|---------|---------|--------*|
A|*3~------|---------|---------|---------|-0~------|---------|-2~------|--------*|
E|---------|---------|---------|---------|---------|---------|---------|---------|

G|---------|---------|---------|---------|---------|---------|---------|---------|
D|*--------|---------|---------|---------|---------|---------|---------|--------*|
A|*5~------|---------|---------|---------|-3~------|---------|---------|--------*|
E|---------|---------|---------|---------|---------|---------|---------|-3\(15)/-|

Chorus:

G|---------|---------|---------|---------|---------|---------|---------|---------|
D|*--------|-0--2\---|-9~--#-9-|---------|-7~--#-7-|---------|-3~--#-3-|--------*|
A|*3~--#-3-|---------|---------|-5--7--\-|---------|-5--7--\-|---------|-3--5--\*|
E|---------|---------|---------|---------|---------|---------|---------|---------|

G|---------|---------|---------|---------|---------|---------|---------|---------|
D|*--------|-0--2\---|-9~--#-9-|---------|-7~--#-7-|---------|-7~--#-7-|--------*|
A|*3~--#-3-|---------|---------|-5--7--\-|---------|-5--7--\-|---------|-5--7--\*|
E|---------|---------|---------|---------|---------|---------|---------|---------|

G|---------|---------|---------|---------|---------|---------|---------|---------|
D|*--------|-0--2\---|-9~--#-9-|---------|-7~--#-7-|---------|-3~--#-3-|--------*|
A|*3~--#-3-|---------|---------|-5--7--\-|---------|-5--7--\-|---------|-3--5--\*|
E|---------|---------|---------|---------|---------|---------|---------|---------|

G|---------|---------|---------|---------|
D|*--------|-0~----\-|-3~------|-2~----0*|
A|*3~--#-3-|---------|---------|--------*|
E|---------|---------|---------|---------|

Break:

G|---------|---------|---------|---------|---------|---------|---------|---------|
D|*--------|---------|---------|---------|---------|---------|---------|--------*|
A|*3-3-3-3-|-3-3-3-3-|---------|---------|-7-7-7-7-|-7-7-7-7-|-8-8-8-8-|-8-8-8-8*|
E|---------|---------|-3-3-3-3-|-3-3-3-3-|---------|---------|---------|---------|

G|---------|---------|---------|---------|---------|---------|---------|---------|
D|*--------|---------|---------|---------|---------|---------|-7-7-7-7-|-7------*|
A|*3-3-3-3-|-3-3-3-3-|---------|---------|-7-7-7-7-|-7-7-7-7-|---------|---5--7-*|
E|---------|---------|-3-3-3-3-|-3-3-3-3-|---------|---------|---------|---------|

Third Verse:

G|---------|---------|---------|---------|---------|---------|---------|---------|
D|*--------|-0--2\---|-5~--#-5-|---------|-2~--#-2-|---------|-3~--#-3-|--------*|
A|*3~--#-3-|---------|---------|-3--5--\-|---------|-3--5--\-|---------|-3--5--\*|
E|---------|---------|---------|---------|---------|---------|---------|---------|

G|---------|---------|---------|---------|---------|---------|---------|---------|
D|*--------|-0--2\---|-5~--#-5-|---------|-2~--#-2-|---------|-3~--#-3-|--------*|
A|*3~--#-3-|---------|---------|-3--5--\-|---------|-3--5--\-|---------|-3--5--\*|
E|---------|---------|---------|---------|---------|---------|---------|---------|

G|---------|---------|---------|---------|---------|---------|---------|---------|
D|*--------|-0--2\---|-5~--#-5-|---------|-2~--#-2-|---------|-7~--#-7-|--------*|
A|*3~--#-3-|---------|---------|-3--5--\-|---------|-3--5--\-|---------|-5--7--\*|
E|---------|---------|---------|---------|---------|---------|---------|---------|

Outro:

G|---------|---------|---------|---------|
D|*--------|-0~------|-3~------|-2~-----*|
A|*3~--3-3-|---------|---------|--------*|
E|---------|---------|---------|---------|

G|---------|---------|---------|---------|
D|*--------|-0~------|-3~------|-2~----0*|
A|*3~--3-3-|---------|---------|--------*|
E|---------|---------|---------|---------|

G|---------|---------|---------|---------|
D|*--------|-0~------|-3~------|-2~----0*|
A|*3~--3-3-|---------|---------|--------*|
E|---------|---------|---------|---------|

G|---------|
D|*-------*|
A|*3~-----*|
E|---------|

Suggestions always appreciated. Cheers
  development and support by
dmitry ivanov