rock
 
|tablatures   |lyrics   |discussion forums   |more tabs @ XGuitar.com

Van_halen tabs

Baluchitherium guitar tab

Baluchitherium

De l'album BALANCE
Tab By dsale@jax.jaxnet.com

Heres the deal.Me and the guys i play with wanted to do a few turns of this
song,because it rocks so hard.It has a LOT of overdubs,but i just worked out
something that sounds good,as you will see.Ok,first the high-stringed
intro thingee:
NOTE-(DROP D TUNING,(low E string = D) ,whole song)


--------------------------------------------------------------------|
------9----9-10-7\------7-7-9---------------------------------------|
/9h11--------------/7-9-------9\7------------------7~~~-9p6-7p4~~~\-|
------------------------------------4h5h7-7h9h11--------------------|
--------------------------------------------------------------------|
--------------------------------------------------------------------|

                                                        
-------0h3h5~~--7--------------------------------------------|
0h2h3--------------9-7-7-9\5-3---2-3-3-5\2---0h2p0~~~--------|
-----------------------------------------------------------0\|
-------------------------------------------------------------|
-------------------------------------------------------------|
-------------------------------------------------------------|


Now,what is played behind it.

                                                                                
------------------|
------------------|
------------------|
------------------|
0--2--2--2--2--2--|
0--2--2--2--2--2--|
                                                                                
 then the infamous..

                                                                                
--------------------------------------------------------------------------------
--------------------------------------------------------------------------------
---2-----2-----2h1--------------------------------------------------2-----2-----
0-----0-----0-------2----------------------------4------------------------------
-----------------------2--2h4--0--5h0--0h5h0--5-----5h7~~~--2h4--0--------------
-------------------------------0---------------------------------0--------------
                                                                                

                                                                                
--------------------------------------------------------------------------------
--------------------------------------------------------------------------------
---2h1----------------------------------------------------2-----2-----2h1-------
--------2--------------------4-----4~~~--2---------------------------------2----
-----------2--2h4-------0h5-----5-----------2~~~--2h4--0------------------------
-------------------4h7---------------------------------0------------------------
                                                                                

                                                                                
--------------------------------------------------------------------------------
--------------------------------------------------------------------------------
---------------------------------------------2-----2-----2h1--------------------
--------------------------4-----------------------------------2----------7------
2--2h4--0--5h0--0h5h0--5-----5h7~~~--2h4--0----------------------2--2h4--5------
--------0---------------------------------0------------------------------0------
                                                                                

                               *-full and vibrated upon                         
--------|-------------------------------------------|
--------|---------8---8---7--5~~~--------(8--10)-7--|
--------|-(9--11)-10*-10*-9*-7*---(9--11)(7--9)--7--|
-----4--|--------------------------------(5--7)--7--|
4h0--2--|-(7--9)------------------(7--9)------------|
--------|-------------------------------------------|
                                                                                

                                      harm---------------->                   
--------------------------------------------(12)-------(5)-----------------------
--------------------------------------(12)--------(5)--------------8~~~--8-------
(9--11)(11--12)(11--12)-11-(9--11)-9-----------------------(9--11)---------------
---------------------------------------------------------------------------------
(7--9)-(9---10)(9---10)-9--(7--9)--7-----------------------(7--9)----------------
---------------------------------------------------------------------------------
                                                                                

                                                                                
--------------------------------------------10--|-+10-+12-+17-+22-+22~~~--|-----
~~~--7~~~--7h8h7--5-----------5h7--8---/12------|-------------------------|-----
---------------------------4--------------------|-------------------------|-----
------------------------------------------------|-------------------------|-----
------------------------------------------------|-------------------------|-----
------------------------------------------------|-------------------------|-----
                                                 + string is picked,brought  
                                                   up a full step then 
                                                   brought back down
                                                   (listen to the song:)
                                                   also this part is played
                                                   against guitar II,tabbed
                                                   below.

                            --------------------|
                            --------------------|
                            --------------------|
                            -----5-----7-----9--|  <-guitarII
                            0h2--3-----5-----7--|
                            --------5-----7-----|
                                                                                

                                                full                            
-----------------------------------------------/--------------------------------
7--------7--9~~~--------7--10~~~--10--10--12--12--10h12h10--7--------7--9-------
9*----7--------------7--------------------------------------7-----7-------------
---7--------------7--------------------------------------------7----------------
--------------------------------------------------------------------------------
--------------------------------------------------------------------------------
                                                                                

                                                                                
--------------------------------------------------------------------------------
~~~--10--9--10------------------------------------------------------------------
------------2-------------------------------------------------------------------
------------2-------------4-----------------------------------------------------
------------0---0h5h0--5-----5h0------------------------------------------------
--------------------------------------------------------------------------------
                                                                                
and thats what ive done.usually when i play it i go back into doing the
beginning riff that is played underneath.like i said,i only wanted to do a few
turns.

dsale@jax.jaxnet.com

De retour  l'archive de partitions

  development and support by
dmitry ivanov